» » »

Adicts, Too Young Bass tabs (ver.1)

Artists:  A B C D E F G H I J K L M N O P Q R S T U V W X Y Z # 

Too Young Bass tabs (ver.1)

Adicts Tabs
Rating:
5/5 (1 vote)
Too Young lessons Tabs too difficult? Try these video lessons and learn fast
                The Adicts - Too Young

Fig1
G|----------------------|
D|--10---12-------------|
A|-8---10---------------|
E|----------10-10-10-10-|

Fig2
G|----------------------|----------------------|----------------------|
D|--10---12-------------|--10---12-------------|--10---12-------------|
A|-8---10---------------|-8---10---------------|-8---10---------------|
E|----------10-10-10-10-|----------10-10-10-10-|----------10-10-10-10-|

G|----------|
D|----------|
A|-----8888-|
E|-8888-----|

Fig3
G|------------|-7777-----------|
D|------------|------10-9-7----|
A|-7777-88-77-|-------------10-|
E|------------|----------------|

Bridge
G|------------|
D|------------|
A|-88-1010----|  only do this part first time, play it right ends
E|---------10-|                                       after fig1 ends

G|-------------------------------|
D|--02--3-33-2--0-00-------------|
A|-3----------------0--1-11--2-3-|
E|-------------------------------|




not entirely sure of the order...


Intro:
Fig1 - x8
Fig2 - x2
Fig3 - x4

Rest of the song:     (Pattern 1, play twice)
Fig1 x4
Fig2 x2
Fig3 x4

Fig1 - x7
Bridge - x4
Fig1 - x4, then 1..2..3..GO!
Fig1 - till end, like 25-30ish times.
            

comments powered by Disqus
↑ Back to top | Adicts Bass for Too Young. Lyrics for acoustic guitar and electric guitar. Tablatures and chords are parodies/interpretations of the original songs. You may use it for private study, scholarship, research or language learning purposes only