» » »

Adicts, Tokyo Tabs (ver.2)

Artists:  A B C D E F G H I J K L M N O P Q R S T U V W X Y Z # 

Tokyo Tabs (ver.2)

Adicts Tabs
Rating:
0/5 (0 votes)
Tokyo lessons Tabs too difficult? Try these video lessons and learn fast
                ----------------------------------------------------------------------------
                     Tokyo - The Adicts
----------------------------------------------------------------------------

Tuning: Standard

Ive seen alot of these tabs and they are not accurate, I can seriously say mine is 120% 
please leave comments and rate with your thoughts.. thanks..


Intro 2x
e|-------------------------------------------------------------------------|
B|-------------------------------------------------------------------------|
G|-------------------------------------------------------------------------|
D|-----------7\-----7\-----------------------------------------------------|
A|--------9-----9------9--------------9------------------------------------|
E|--0--9-----------------------0--9------7\--------------------------------|

Verse 3x                    Pre-Chorus 1x
e|-------------------|      e|-----------------------------------|
B|-------------------|      B|-----------------------------------|
G|-------------------|      G|-11---9---11---14---11---9----11---|
D|-------------------|      D|--x---x---x----x----x----x----x----|
A|--------9\---------|      A|--9---7---9----12---9----7----9----|
E|--0--9-------------|      E|-----------------------------------|

1st Chorus
e|---7-----------9------------------------------------7----------9------|
B|---7-----------9------------------------------------7----------9------|
G|---6-----------10-----------------------------------6----------10-----|
D|---9-----------11------------------7\-----7\--------9----------11-----|
A|---9-----------11---------------9------9------9-----9----------11-----|
E|---7-----------9---------0--9-----------------------7----------9------|

Intro 1x
Verse 3x
Pre-Chorus 1x

2nd Chorus
e|---7-----9--------------------------7----9----------------------------|
B|---7-----9--------------------------7----9----------------------------|
G|---8-----10-------------------------8----10---------------------------|
D|---9-----11----------------7\-------9----11---------------------------|
A|---9-----11------------9------------9----11---------------------------|
E|---7-----9-------0--9---------------7----9----------------------------|


Intro 2x

Interlude (Two Guitars)
1st Guitar plays Verse 3x

2nd guitar
e|--------------------------------------------------------------------|
B|--------------------------------------------------------------------|
G|------------------------------- 11\-11\-11\-----14\-14\-14\---------|
D|--11\-11\-11\----14\-14\-14\----------------------------------------|
A|--------------------------------------------------------------------|
E|--------------------------------------------------------------------|

Pre-chorus 1x
1st Chorus

2nd verse 2x
e|--------------------------------------------------------|
B|--------------------------------------------------------|
G|-----------9--------------------------------------------|
D|-----------7--------------------------------------------|
A|--------9--------------------9--------------------------|
E|--0--9---------------0---9-------7\---------------------|

Pre-Chorus 1x
2nd Chorus

BreakDown
e|-------------|
B|-------------|
G|---9---------|
D|---7---2-----|
A|-------0-----|
E|-------------|


Intro 6x


Ending
e|--7-----9-----------~2~---|
B|--7-----9-----------~2~---|
G|--8-----10----------~3~---|
D|--9-----11----------~4~---|
A|--9-----11----------~4~---|
E|--7-----9-----------~2~---|


Well this is it hope you have fun.. cause this is such a fun song to play and to sing 
with... I know almost every Adicts song on guitar so if you have a song in particular you 

| \  Slide Down
| ~  Delay
| x  Mute Note
            
Submit corrections

comments powered by Disqus
↑ Back to top | Adicts Tabs for Tokyo. Lyrics for acoustic guitar and electric guitar. Tablatures and chords are parodies/interpretations of the original songs. You may use it for private study, scholarship, research or language learning purposes only