» » »

Adicts, Straight Jacket Tabs (ver.1)

Artists:  A B C D E F G H I J K L M N O P Q R S T U V W X Y Z # 

Straight Jacket Tabs (ver.1)

Adicts Tabs
 Rating:
3.8/5 (5 votes)
Straight Jacket lessons Tabs too difficult? Try these video lessons and learn fast
1
                                          STRAIGHT JACKET
                        -------------------
                              ADICTS
" " -palm mute
x- blank strum (rest fingers on strings, but dont press down on anything)

e|-------------------------|
b|-15----15----15----15----|
g|----14----14----14----14-| intro
d|-------------------------|
a|-------------------------|
E|-------------------------|

e|--------------------|
b|--------------------|
g|--------------------| verse/bridge
d|-7-77---------------|
a|-5-55-7-77-9-77-777-|
E|------5-55-7-55-555-|

e|-------------------------------------|
b|-------------------------------------|
g|-------------------------------------| verse b
d|-3-333333----------3-333333----------|
a|-1-111111-5-xxxxxx-1-111111-5-xxxxxx-|
E|----------3-xxxxxx----------3-xxxxxx-|

e|---------------------------|
b|---------------------------|
g|-----10/12-9-7/9/7---------| riff
d|-10----------------10/9/10-|
a|---------------------------|
E|---------------------------|

e|--------------------------------------------|
b|--------------------------------------------|
g|--------------------------------------------| chorus...
d|-7x7-7776x6-6665x5-5554x4-4443x3-3332x2-222-|
a|-5x5-5554x4-4443x3-3332x2-2221x1-1110x0-000-|
E|--------------------------------------------|

e|-------------------------------------|
b|-------------------------------------|
g|-------------------------------------|  end chorus.
d|-7-----------------7-----------------|
a|-5-7-10-x7x7x77777-5-7-10-x7x7x77777-|
E|---5--8-x5x5x55555---5--8-x8x8x88888-|

e|------------------------------------------------------------|
b|----------15----15----15----15----15----15----15-15-15-15---|
g|-------------14----14----14----14----14----14---14-14-14-14-| enterlude
d|-7----------------------------------------------------------|   ?
a|-5----------------------------------------------------------|
E|------------------------------------------------------------|

e|--------|
b|--------|
g|--------|  end
d|-7------|
a|-5-7-10-|
E|---5--8-|

SONG ORDER
------------
intro
verse/bridge x4
verse b
verse/bridge x2
riff
chorus
verse/bridge x4
verse b
verse/bridge x2
riff
chorus
enterlude? (dunno what its called)
verse/bridge x4
verse b
verse/bridge x2
riff
chorus
end

        Once again, fun song. Easy. The Adicts kick ass, so dont f**k
this one up. these are accurate tabs, and if youve got a f**king
problem with them take it up with me, my sn on aim is TheAdictsUK.
Enjoy.
            
Submit corrections

comments powered by Disqus
↑ Back to top | Adicts Tabs for Straight Jacket. Lyrics for acoustic guitar and electric guitar. 1 Tablatures and chords are parodies/interpretations of the original songs. You may use it for private study, scholarship, research or language learning purposes only