» » »

Adicts, Chinese Take Away Tabs (ver.1)

Artists:  A B C D E F G H I J K L M N O P Q R S T U V W X Y Z # 

Chinese Take Away Tabs (ver.1)

Adicts Tabs
 Rating:
4/5 (9 votes)
Chinese Take Away lessons Tabs too difficult? Try these video lessons and learn fast
                Standard Tuning
You got to listen to the song ones or twice but this is an easy song.

Intro
1|------5-5-------3-3-------5----|
2|------5-5--3-5--3-3--3-5--5----|
3|-----------------------------2-|x Semi- Distortion
4|-------------------------------|
5|-------------------------------|
6|-------------------------------|

Chorus Pt1
1|---------------------------------------------|
2|---------------------------------------------|
3|---------------------------------------------|2x Distortion
4|----7-7-7------------5-5-5-----------7-------|
5|----5-5-5---5---7----3-3-3---5---7---5-------|
6|------------3---5------------3---5-----------|

Chorus Pt2
1|-----------------------------------------------------|
2|-----------------------------------------------------|
3|------------------7-7--5-----------------------------|
4|---2--------5--3-------------2---------5--3----------|
5|---0--5--3-------------------0--5--3----------5---3--|
6|-----------------------------------------------------|

Verse
1|-----------------------------------------------------|
2|-----------------------------------------------------|
3|-----------------------------------------------------|
4|----------------------5--5--5--5--5------------------|4x
5|---5--5--5--5--5------3--3--3--3--3------------------|
6|---3--3--3--3--3-------------------------------------|
 Went to the fish Shop  bompap pitap.........

THEN..
Chorus 1&2
Verse
Chorus 1&2

Melody
1|--2--2--2---3--3--3---2--2--2---      1|--3-------------------------|
2|--3--3--3---3--3--3---3--3--3---      2|--3-------------------------|
3|--2--2--2---x--x--x---2--2--2--- Then 3|--x-------------------------|
4|------------x--x--x-------------      4|--x--P.M. Play it like 10X--|
5|------------2--2--2-------------      5|--2-------------------------|
6|------------3--3--3-------------      6|--3-------------------------|

And end it with this
1|--2--|
2|--3--|Let It Ring
3|--2--|
4|-----|
5|-----|
6|-----|

Chorus 1&2
Verse
Chorus Pt 1 only, Play this until the song Ends.
            
Submit corrections

comments powered by Disqus
↑ Back to top | Adicts Tabs for Chinese Take Away. Lyrics for acoustic guitar and electric guitar. Tablatures and chords are parodies/interpretations of the original songs. You may use it for private study, scholarship, research or language learning purposes only