» » »

Adema, Needles Tabs (ver.1)

Artists:  A B C D E F G H I J K L M N O P Q R S T U V W X Y Z # 

Needles Tabs (ver.1)

Adema Tabs
 Rating:
4/5 (5 votes)
Needles lessons Tabs too difficult? Try these video lessons and learn fast
                adema needles                                              song set-up

intro is the same as the chorus (x2)                          chorus
d)--------------------------)      (----------------------)   verse
a)--------------------------)      (----------------------)   chorus
f)--------------------------)      (----------------------)   verse
c)--11h13-11h13-11h13-13/14-)  x3  (--11h13-11h13-10h11/1-)   chorus
g)--11h13-11h13-11h13-13/14-)      (--11h13-11h13-10h11/1-)   bridge #1
C)--11h13-11h13-11h13-13/14-)      (--11h13-11h13-10h11/1-)   bridge #2
                                                              bridge #1
                                                              chorus
verse (x4)                                                    bridge #1 
d)-------------------------------------------------)
a)-------------------------------------18-18-18-18-)
f)-------------------------------------------------)
c)--13-13-13-13h14-13-13-13--13-13-13--------------)  
g)-------------------------------------------------)
C)-------------------------------------------------)
it's actually played kinda fast, i just put the 
spaces in between to not confuse anybody.


bridge #1   (x4)
d)-------------------)
a)-------------------)
f)------3333----2222-)
c)--1111333344442222-)
g)--1111111144440000-)
C)--1111----4444-----)

bridge #2
d)----------------------------------------------)
a)----------------------------------------------)
f)----------------------------------------------)
c)--1-3-4-3-00-1-3-4-3-00-1-3-4---00-1-3-4-3-00-)
g)--1-3-4-3-00-1-3-4-3-00-1-3-4-3-00-1-3-4-3-00-)
C)--1-3-4-3-00-1-3-4-3-00-1-3-4---00-1-3-4-3-00-)
pick squeel on the third fret on the G string
the third time trough the riff.

outro is the same as bridge #1
            
Submit corrections

comments powered by Disqus
↑ Back to top | Adema Tabs for Needles. Lyrics for acoustic guitar and electric guitar. Tablatures and chords are parodies/interpretations of the original songs. You may use it for private study, scholarship, research or language learning purposes only