» » »

Adema, Needles Tabs (ver.2)

Artists:  A B C D E F G H I J K L M N O P Q R S T U V W X Y Z # 

Needles Tabs (ver.2)

Adema Tabs
Rating:
0/5 (0 votes)
Needles lessons Tabs too difficult? Try these video lessons and learn fast
                First, you need a 7 string guitar to play this song correctly.
Second, I play this song tuned GDGCFAD.  I believe they play it ADGCFAD.  My tuning is MUCH easier.

KEY: 
P.M. - Palm mute
T.R. - Tremolo pick

Intro (x4): 
|-----------------------------------------------------------------|
|-----------------------------------------------------------------|
|-----------------------------------------------------------------|
|-----------------------------------------------------------------|
|----5h6-5h6-5h6-5h6/7--5h6-5h6-5h6-5h6/7-------------------------|
|----5h6-5h6-5h6-5h6/7--5h6-5h6-5h6-5h6/7-------------------------|
|----5h6-5h6-5h6-5h6/7--5h6-5h6-5h6-5h6/7-------------------------|


Verse [P.M. Throughout] (x2):
|---------------------------------------------------------|
|---------------------------------------------------------|
|---------------------------------------------------------|
|---------------------------------------------------------|
|---------------------------------------------------------|
|---------------------------------------------------------|
|--66666/777777/999999--66666/777777/999999/10101010------|

Chorus (x3):

|-----------------------------------------------------------------|
|-----------------------------------------------------------------|
|-----------------------------------------------------------------|
|-----------------------------------------------------------------|
|-5h6-5h6-5h6-5/19---5h6-5h6-5h6\4--------------------------------|
|-5h6-5h6-5h6-5/19---5h6-5h6-5h6\4--------------------------------|
|-5h6-5h6-5h6-5/19---5h6-5h6-5h6\4--------------------------------|
TR              ^^

Chorus 1 ending:
|-----------------------------------------------------------------|
|-----------------------------------------------------------------|
|-----------------------------------------------------------------|
|-----------------------------------------------------------------|
|-5h6-5h6-5h6-5/19---5h6-5h6-5h6\4--66--66------------------------|
|-5h6-5h6-5h6-5/19---5h6-5h6-5h6\4--66--66---TACET----------------|
|-5h6-5h6-5h6-5/19---5h6-5h6-5h6\4--66--66------------------------|
TR              ^^


Verse [P.M. Throughout] (x2):
|---------------------------------------------------------|
|---------------------------------------------------------|
|---------------------------------------------------------|
|---------------------------------------------------------|
|---------------------------------------------------------|
|---------------------------------------------------------|
|--66666/777777/999999--66666/777777/999999/10101010------|

Chorus (x4):

|-----------------------------------------------------------------|
|-----------------------------------------------------------------|
|-----------------------------------------------------------------|
|-----------------------------------------------------------------|
|-5h6-5h6-5h6-5/19---5h6-5h6-5h6\4--------------------------------|
|-5h6-5h6-5h6-5/19---5h6-5h6-5h6\4--------------------------------|
|-5h6-5h6-5h6-5/19---5h6-5h6-5h6\4--------------------------------|
TR              ^^

Interlude (x2):

|----------------------------------------------------------|
|----------------------------------------------------------|
|----------------------------------------------------------|
|----------------------------------------------------------|
|----------------------------------------------------------|
|----------------------------------------------------------|
|-6666/13131313\9999/12121212--6666/13131313\9999\44444444-|
(Yes, they are 13's and 12's)

Bridge (x4):
|-----------------|
|-----------------|
|-----------------|
|-----------------|
|-6--7-8-9-8\4----|
|-6--7-8-9-8\4----|
|-6--7-8-9-8\4----|


|----------------------------------------------------------|
|----------------------------------------------------------|
|----------------------------------------------------------|
|----------------------------------------------------------|
|----------------------------------------------------------|
|----------------------------------------------------------|
|-6666/13131313\9999/12121212--6666/13131313\9999\44444444-|

|-----------------------------------------------------------|
|-----------------------------------------------------------|
|-----------------------------------------------------------|
|-----------------------------------------------------------|
|-----------------------------------------------------------|
|------------------------------------------------------66-66|
|-6666/13131313\9999/12121212--6666/13131313\9999\4444-66-66|

Chorus 3 (x4):
|-----------------------------------------------------------------|
|-----------------------------------------------------------------|
|-----------------------------------------------------------------|
|-----------------------------------------------------------------|
|----5h6-5h6-5h6-5h6/7--5h6-5h6-5h6-5h6/7-------------------------|
|----5h6-5h6-5h6-5h6/7--5h6-5h6-5h6-5h6/7-------------------------|
|----5h6-5h6-5h6-5h6/7--5h6-5h6-5h6-5h6/7-------------------------|

Chorus (x4):

|-----------------------------------------------------------------|
|-----------------------------------------------------------------|
|-----------------------------------------------------------------|
|-----------------------------------------------------------------|
|-5h6-5h6-5h6-5/19---5h6-5h6-5h6\4--------------------------------|
|-5h6-5h6-5h6-5/19---5h6-5h6-5h6\4--------------------------------|
|-5h6-5h6-5h6-5/19---5h6-5h6-5h6\4--------------------------------|
TR              ^^


|-----------------------------------------------------------|
|-----------------------------------------------------------|
|-----------------------------------------------------------|
|-----------------------------------------------------------|
|-----------------------------------------------------------|
|------------------------------------------------------66-66|
|-6666/13131313\9999/12121212--6666/13131313\9999\4444-66-66|
            
Submit corrections

comments powered by Disqus
↑ Back to top | Adema Tabs for Needles. Lyrics for acoustic guitar and electric guitar. Tablatures and chords are parodies/interpretations of the original songs. You may use it for private study, scholarship, research or language learning purposes only