» » »

Adema, Everyone Tabs (ver.2)

Artists:  A B C D E F G H I J K L M N O P Q R S T U V W X Y Z # 

Everyone Tabs (ver.2)

Adema Tabs
 Rating:
4/5 (4 votes)
Everyone lessons Tabs too difficult? Try these video lessons and learn fast
                This tab is for people who own 7 string guitars,the guitarest uses a 7 string to play this song.
	TUNING:7 string guitar Drop 1/2 step (Bb,Eb,Ab,Db,Gb,Bb,Eb)

    
  Riff 1:
Eb||------------------------------------------|
Bb||------------------------------------------|
Gb||------------------------------------------|
Db||--------------------------------------3---|
Ab||-9-2-2-2--2--9-2-2-2--2--9-2-2-2--2-4-3-2-|
Eb||-9-2-2-2--2--9-2-2-2--2--9-2-2-2--2-4-1-2-|
Bb||-7-0-0-0--0--7-0-0-0--0--7-0-0-0--0-2---0-|

  Riff 2:
Eb||------------------------------------------|
Bb||------7--------7--------------------------|
Gb||--------5-------5-------------------------|
Db||-9/11-----9/11------11--------------------|
Ab||------------------------------------------|
Eb||------------------------------------------|
Bb||------------------------------------------|

  Riff 3:
Eb||------------------------------------------|
Bb||------------------------------------------|
Gb||------------------------------------------|
Db||------------------------------------------|
Ab||-9-9-9-9-9-9-10-10--5-5-5-2-2-2-3-2-------|
Eb||-9-9-9-9-9-9-10-10--5-5-5-2-2-2-3-2-------|
Bb||-7-7-7-7-7-7--8--8--3-3-3-0-0-0-1-0-------|


  Riff 4:
Eb||------------------------------------------|
Bb||------------------------------------------|
Gb||------------------------------------------|
Db||------------------------------------------|
Ab||-9-9-9-9-9-9-10-10--5-5-5-5-4-4-3-3-------|
Eb||-9-9-9-9-9-9-10-10--5-5-5-5-4-4-3-3-------|
Bb||-7-7-7-7-7-7--8--8--3-3-3-3-2-2-1-1-------|

  Riff 5:
Eb||-------------------|
Bb||-------------------|
Gb||-------------------|
Db||-----4-4-----5-4---|
Ab||-------------------|
Eb||-2-2-----2-2-------|
Bb||-------------------|

  Riff 5b:
Eb||----------------------------------------|
Bb||-------6---------------6----------------|
Gb||-6h8-8---9p8-8--6h8-8----9WD------------|
Db||----------------------------------------|
Ab||----------------------------------------|
Eb||----------------------------------------|
Bb||----------------------------------------|

  Riff 6:
Eb||---------------------------------------------------------------------|
Bb||---------------------------------------------------------------------|
Gb||---------------------------------------------------------------------|
Db||-/12------13-13--8--8--8-/5-5-6-7---/12------13-13--8--8--8--7-7-6-6-|
Ab||--x-------x--x---x--x--x--x-x-x-x----x-------x--x---x--x--x--x-x-x-x-|
Eb||-/10------11-11--6--6--6-/3-3-4-5---/10------11-11--6--6--6-/5-5/4-4-|
Bb||---------------------------------------------------------------------|


  Riff 7:(end on)
Eb||------|
Bb||------|
Gb||------|
Db||-/12--|
Ab||--x---|
Eb||-/10--|
Bb||------|

Song layout:
Intro: 	riff 1 x 4

verse 1	:riff 2 x 4 
int.lde	:riff 1 x 2
verse 2	:riff 2 x 4

Chorus :riff 3 x 1
	riff 4 x 1
	riff 3 x 1
	riff 4 x 1

bridge:	Riff 5 x 8 
	Riff 5 x 2(5b x 1) 

Chorus :riff 3 x 1
	riff 4 x 1
	riff 3 x 1
	riff 4 x 1
	(All X2 with riff 6 2nd time)
            
Submit corrections

comments powered by Disqus
↑ Back to top | Adema Tabs for Everyone. Lyrics for acoustic guitar and electric guitar. Tablatures and chords are parodies/interpretations of the original songs. You may use it for private study, scholarship, research or language learning purposes only