» » »

Everyone Tabs (ver.3)

Artists:  A B C D E F G H I J K L M N O P Q R S T U V W X Y Z # 

Everyone Tabs (ver.3)

Adema
Rating:
0/5 (0 votes)

Hard to play? Try these video lessons and learn fast.
                u can also play this drop C or B but it takes to long for me to do all that

I realize they probably use a 7 string guitar
but most people dont have one or can afford one
this tab sounds best in drop C# but just as good in DROP D
DADGBE

intro-slide right away after first chord
-----------------------------------------------
-----------------------------------------------
-----------------------------------------------
-3/h8-8\3--3/h8-8\3--3/h8-8/3--3/h8-8\3-3--8--3
-3/h8-8\3--3/h8-8\3--3/h8-8/3--3/h8-8\3-3--8--3
-3/h8-8\3--3/h8-8\3--3/h8-8/3--3/h8-8\3-3--8--3

chorus-not 100%sure bout this but pretty sure
----------------------------------------------
--------------------------------------------
----------------------------------------------
--3-333\4-44-6-666------------------------------
--3-333\4-44-6-666------------------------------
--3-333\4-44-6-666------------------------------


---------------------------------------------
---------------------------------------------
---------5------5-----6-5--------------------
------3-------3------------------------------
---0--------0--------------------------------
---------------------------------------------
            
Hard to play? Try these video lessons and learn fast. | Correct




comments powered by Disqus
↑ Back to top | Tablatures and chords are parodies/interpretations of the original songs. You may use it for private study, scholarship, research or language learning purposes only