» » »

Rolling In The Deep Tabs (ver.1)

Artists:  A B C D E F G H I J K L M N O P Q R S T U V W X Y Z # 

Rolling In The Deep Tabs (ver.1)

Adele
Rating:
0/5 (0 votes)

Hard to play? Try these video lessons and learn fast.
                

 Intro
  E E E E E E E E E E E E E E E E
|------------------------------------|
|------------------------------------|
|-5-5-5-5-5-5-5-5-5-5-5-5-5-5-5-5----|
|-5-5-5-5-5-5-5-5-5-5-5-5-5-5-5-5----|
|-3-3-3-3-3-3-3-3-3-3-3-3-3-3-3-3----|
|------------------------------------|


 Verse
  E E E E E E E E E E E E E E E E E E E E E E E E E E E E E E E E
|--------------------------------------------------------------------|
|--------------------------------------------------------------------|
|-5-5-5-5-5-5-5-5-5--------------------------------------------------|
|-5-5-5-5-5-5-5-5-5-5-5-5-5-5-5-5-5-8-8-8-8-8-8-8-8-5-5-5-8-8-8-8----|
|-3-3-3-3-3-3-3-3-3-5-5-5-5-5-5-5-5-8-8-8-8-8-8-8-8-5-5-5-8-8-8-8----|
|-------------------3-3-3-3-3-3-3-3-6-6-6-6-6-6-6-6-3-3-3-6-6-6-6----|


  E E E E E E E E E E E E E E E E E E E E E E E E E E E E E E E E
|--------------------------------------------------------------------|
|--------------------------------------------------------------------|
|-5-5-5-5-5-5-5-5-5--------------------------------------------------|
|-5-5-5-5-5-5-5-5-5-5-5-5-5-5-5-5-5-8-8-8-8-8-8-8-8-5-5-5-8-8-8-8----|
|-3-3-3-3-3-3-3-3-3-5-5-5-5-5-5-5-5-8-8-8-8-8-8-8-8-5-5-5-8-8-8-8----|
|-------------------3-3-3-3-3-3-3-3-6-6-6-6-6-6-6-6-3-3-3-6-6-6-6----|


  E E E E E E E E E E E E E E E E E E E E E E E E E E E E E E E E
|--------------------------------------------------------------------|
|--------------------------------------------------------------------|
|-5-5-5-5-5-5-5-5-5--------------------------------------------------|
|-5-5-5-5-5-5-5-5-5-5-5-5-5-5-5-5-5-8-8-8-8-8-8-8-8-5-5-5-8-8-8-8----|
|-3-3-3-3-3-3-3-3-3-5-5-5-5-5-5-5-5-8-8-8-8-8-8-8-8-5-5-5-8-8-8-8----|
|-------------------3-3-3-3-3-3-3-3-6-6-6-6-6-6-6-6-3-3-3-6-6-6-6----|


  E E E E E E E E E E E E E E E E E E E E E E E E E E E E E E E E
|--------------------------------------------------------------------|
|--------------------------------------------------------------------|
|-5-5-5-5-5-5-5-5-5--------------------------------------------------|
|-5-5-5-5-5-5-5-5-5-5-5-5-5-5-5-5-5-8-8-8-8-8-8-8-8-5-5-5-8-8-8-8----|
|-3-3-3-3-3-3-3-3-3-5-5-5-5-5-5-5-5-8-8-8-8-8-8-8-8-5-5-5-8-8-8-8----|
|-------------------3-3-3-3-3-3-3-3-6-6-6-6-6-6-6-6-3-3-3-6-6-6-6----|


 Pre Chorus
  E E E E E E E S S E E E E E E E S S
|-4-4-4-4-4-4-4-4-4-6-6-6-6-6-6-6-6-6----|
|-4-4-4-4-4-4-4-4-4-6-6-6-6-6-6-6-6-6----|
|-5-5-5-5-5-5-5-5-5-7-7-7-7-7-7-7-7-7----|
|-6-6-6-6-6-6-6-6-6-8-8-8-8-8-8-8-8-8----|
|-6-6-6-6-6-6-6-6-6-8-8-8-8-8-8-8-8-8----|
|-4-4-4-4-4-4-4-4-4-6-6-6-6-6-6-6-6-6----|


  E E E E E E E S S E E E E E E E E
|-3-3-3-3-3-3-3-3-3-4-4-4-4-6-6-6-6----|
|-3-3-3-3-3-3-3-3-3-4-4-4-4-6-6-6-6----|
|-3-3-3-3-3-3-3-3-3-5-5-5-5-7-7-7-7----|
|-5-5-5-5-5-5-5-5-5-6-6-6-6-8-8-8-8----|
|-5-5-5-5-5-5-5-5-5-6-6-6-6-8-8-8-8----|
|-3-3-3-3-3-3-3-3-3-4-4-4-4-6-6-6-6----|


  E E E E E E E S S E E E E E E E S S
|-4-4-4-4-4-4-4-4-4-6-6-6-6-6-6-6-6-6----|
|-4-4-4-4-4-4-4-4-4-6-6-6-6-6-6-6-6-6----|
|-5-5-5-5-5-5-5-5-5-7-7-7-7-7-7-7-7-7----|
|-6-6-6-6-6-6-6-6-6-8-8-8-8-8-8-8-8-8----|
|-6-6-6-6-6-6-6-6-6-8-8-8-8-8-8-8-8-8----|
|-4-4-4-4-4-4-4-4-4-6-6-6-6-6-6-6-6-6----|


  E E E E E E E S S E E E E E E E E
|-3-3-3-3-3-3-3-3-3-3-3-3-3-3-3-3-3----|
|-3-3-3-3-3-3-3-3-3-3-3-3-3-3-3-3-3----|
|-3-3-3-3-3-3-3-3-3-4-4-4-4-4-4-4-4----|
|-5-5-5-5-5-5-5-5-5-3-3-3-3-3-3-3-3----|
|-5-5-5-5-5-5-5-5-5-5-5-5-5-5-5-5-5----|
|-3-3-3-3-3-3-3-3-3-3-3-3-3-3-3-3-3----|


 Chorus
  Q  Q  E E E Q  E E E E E E E Q  Q  E E E Q  E E E E E E E
|-3--3--3-3-3-6--6-6-6-6-6-6-6-4--4--4-4-4-4--4-4-4-6-6-6-6----|
|-4--4--4-4-4-6--6-6-6-6-6-6-6-4--4--4-4-4-4--4-4-4-6-6-6-6----|
|-5--5--5-5-5-7--7-7-7-7-7-7-7-5--5--5-5-5-5--5-5-5-7-7-7-7----|
|-5--5--5-5-5-8--8-8-8-8-8-8-8-6--6--6-6-6-6--6-6-6-8-8-8-8----|
|-3--3--3-3-3-8--8-8-8-8-8-8-8-6--6--6-6-6-6--6-6-6-8-8-8-8----|
|-------------6--6-6-6-6-6-6-6-4--4--4-4-4-4--4-4-4-6-6-6-6----|


  Q  Q  E E E Q  E E E E E E E Q  Q  E E E Q  E E E E E E E
|-3--3--3-3-3-6--6-6-6-6-6-6-6-4--4--4-4-4-4--4-4-4-6-6-6-6----|
|-4--4--4-4-4-6--6-6-6-6-6-6-6-4--4--4-4-4-4--4-4-4-6-6-6-6----|
|-5--5--5-5-5-7--7-7-7-7-7-7-7-5--5--5-5-5-5--5-5-5-7-7-7-7----|
|-5--5--5-5-5-8--8-8-8-8-8-8-8-6--6--6-6-6-6--6-6-6-8-8-8-8----|
|-3--3--3-3-3-8--8-8-8-8-8-8-8-6--6--6-6-6-6--6-6-6-8-8-8-8----|
|-------------6--6-6-6-6-6-6-6-4--4--4-4-4-4--4-4-4-6-6-6-6----|


 Verse
  E E E E E E E E E E E E E E E E E E E E E E E E E E E E E E E E
|--------------------------------------------------------------------|
|--------------------------------------------------------------------|
|-5-5-5-5-5-5-5-5-5--------------------------------------------------|
|-5-5-5-5-5-5-5-5-5-5-5-5-5-5-5-5-5-8-8-8-8-8-8-8-8-5-5-5-8-8-8-8----|
|-3-3-3-3-3-3-3-3-3-5-5-5-5-5-5-5-5-8-8-8-8-8-8-8-8-5-5-5-8-8-8-8----|
|-------------------3-3-3-3-3-3-3-3-6-6-6-6-6-6-6-6-3-3-3-6-6-6-6----|


  E E E E E E E E E E E E E E E E E E E E E E E E E E E E E E E E
|--------------------------------------------------------------------|
|--------------------------------------------------------------------|
|-5-5-5-5-5-5-5-5-5--------------------------------------------------|
|-5-5-5-5-5-5-5-5-5-5-5-5-5-5-5-5-5-8-8-8-8-8-8-8-8-5-5-5-8-8-8-8----|
|-3-3-3-3-3-3-3-3-3-5-5-5-5-5-5-5-5-8-8-8-8-8-8-8-8-5-5-5-8-8-8-8----|
|-------------------3-3-3-3-3-3-3-3-6-6-6-6-6-6-6-6-3-3-3-6-6-6-6----|


 Pre Chorus
  E E E E E E E S S E E E E E E E S S
|-4-4-4-4-4-4-4-4-4-6-6-6-6-6-6-6-6-6----|
|-4-4-4-4-4-4-4-4-4-6-6-6-6-6-6-6-6-6----|
|-5-5-5-5-5-5-5-5-5-7-7-7-7-7-7-7-7-7----|
|-6-6-6-6-6-6-6-6-6-8-8-8-8-8-8-8-8-8----|
|-6-6-6-6-6-6-6-6-6-8-8-8-8-8-8-8-8-8----|
|-4-4-4-4-4-4-4-4-4-6-6-6-6-6-6-6-6-6----|


  E E E E E E E S S E E E E E E E E
|-3-3-3-3-3-3-3-3-3-4-4-4-4-6-6-6-6----|
|-3-3-3-3-3-3-3-3-3-4-4-4-4-6-6-6-6----|
|-3-3-3-3-3-3-3-3-3-5-5-5-5-7-7-7-7----|
|-5-5-5-5-5-5-5-5-5-6-6-6-6-8-8-8-8----|
|-5-5-5-5-5-5-5-5-5-6-6-6-6-8-8-8-8----|
|-3-3-3-3-3-3-3-3-3-4-4-4-4-6-6-6-6----|


  E E E E E E E S S E E E E E E E S S
|-4-4-4-4-4-4-4-4-4-6-6-6-6-6-6-6-6-6----|
|-4-4-4-4-4-4-4-4-4-6-6-6-6-6-6-6-6-6----|
|-5-5-5-5-5-5-5-5-5-7-7-7-7-7-7-7-7-7----|
|-6-6-6-6-6-6-6-6-6-8-8-8-8-8-8-8-8-8----|
|-6-6-6-6-6-6-6-6-6-8-8-8-8-8-8-8-8-8----|
|-4-4-4-4-4-4-4-4-4-6-6-6-6-6-6-6-6-6----|


  E E E E E E E S S E E E E E E E E
|-3-3-3-3-3-3-3-3-3-3-3-3-3-3-3-3-3----|
|-3-3-3-3-3-3-3-3-3-3-3-3-3-3-3-3-3----|
|-3-3-3-3-3-3-3-3-3-4-4-4-4-4-4-4-4----|
|-5-5-5-5-5-5-5-5-5-3-3-3-3-3-3-3-3----|
|-5-5-5-5-5-5-5-5-5-5-5-5-5-5-5-5-5----|
|-3-3-3-3-3-3-3-3-3-3-3-3-3-3-3-3-3----|


 Chorus
  Q  Q  E E E Q  E E E E E E E Q  Q  E E E Q  E E E E E E E
|-3--3--3-3-3-6--6-6-6-6-6-6-6-4--4--4-4-4-4--4-4-4-6-6-6-6----|
|-4--4--4-4-4-6--6-6-6-6-6-6-6-4--4--4-4-4-4--4-4-4-6-6-6-6----|
|-5--5--5-5-5-7--7-7-7-7-7-7-7-5--5--5-5-5-5--5-5-5-7-7-7-7----|
|-5--5--5-5-5-8--8-8-8-8-8-8-8-6--6--6-6-6-6--6-6-6-8-8-8-8----|
|-3--3--3-3-3-8--8-8-8-8-8-8-8-6--6--6-6-6-6--6-6-6-8-8-8-8----|
|-------------6--6-6-6-6-6-6-6-4--4--4-4-4-4--4-4-4-6-6-6-6----|


  Q  Q  E E E Q  E E E E E E E Q  Q  E E E Q  E E E E E E E
|-3--3--3-3-3-6--6-6-6-6-6-6-6-4--4--4-4-4-4--4-4-4-6-6-6-6----|
|-4--4--4-4-4-6--6-6-6-6-6-6-6-4--4--4-4-4-4--4-4-4-6-6-6-6----|
|-5--5--5-5-5-7--7-7-7-7-7-7-7-5--5--5-5-5-5--5-5-5-7-7-7-7----|
|-5--5--5-5-5-8--8-8-8-8-8-8-8-6--6--6-6-6-6--6-6-6-8-8-8-8----|
|-3--3--3-3-3-8--8-8-8-8-8-8-8-6--6--6-6-6-6--6-6-6-8-8-8-8----|
|-------------6--6-6-6-6-6-6-6-4--4--4-4-4-4--4-4-4-6-6-6-6----|


  Q  Q  E E E Q  E E E E E E E Q  Q  E E E Q  E E E E E E E
|-4--4--4-4-4-6--6-6-6-6-6-6-6-3--3--3-3-3-6--6-6-6-6-6-6-6----|
|-4--4--4-4-4-6--6-6-6-6-6-6-6-4--4--4-4-4-6--6-6-6-6-6-6-6----|
|-5--5--5-5-5-7--7-7-7-7-7-7-7-5--5--5-5-5-7--7-7-7-7-7-7-7----|
|-6--6--6-6-6-8--8-8-8-8-8-8-8-5--5--5-5-5-8--8-8-8-8-8-8-8----|
|-6--6--6-6-6-8--8-8-8-8-8-8-8-3--3--3-3-3-8--8-8-8-8-8-8-8----|
|-4--4--4-4-4-6--6-6-6-6-6-6-6-------------6--6-6-6-6-6-6-6----|


  Q  Q  E E E Q  E E E E E E E Q  Q  E E E Q  E E E E E E E
|-4--4--4-4-4-4--4-4-4-4-4-4-4-6--6--6-6-6-6--6-6-6-6-6-6-6----|
|-4--4--4-4-4-4--4-4-4-4-4-4-4-6--6--6-6-6-6--6-6-6-6-6-6-6----|
|-5--5--5-5-5-5--5-5-5-5-5-5-5-7--7--7-7-7-7--7-7-7-7-7-7-7----|
|-6--6--6-6-6-6--6-6-6-6-6-6-6-8--8--8-8-8-8--8-8-8-8-8-8-8----|
|-6--6--6-6-6-6--6-6-6-6-6-6-6-8--8--8-8-8-8--8-8-8-8-8-8-8----|
|-4--4--4-4-4-4--4-4-4-4-4-4-4-6--6--6-6-6-6--6-6-6-6-6-6-6----|


 Verse
  E E E E E E E E E E E E E E E E E E E E E E E E E E E E E E E E
|--------------------------------------------------------------------|
|--------------------------------------------------------------------|
|-5-5-5-5-5-5-5-5-5--------------------------------------------------|
|-5-5-5-5-5-5-5-5-5-5-5-5-5-5-5-5-5-8-8-8-8-8-8-8-8-5-5-5-8-8-8-8----|
|-3-3-3-3-3-3-3-3-3-5-5-5-5-5-5-5-5-8-8-8-8-8-8-8-8-5-5-5-8-8-8-8----|
|-------------------3-3-3-3-3-3-3-3-6-6-6-6-6-6-6-6-3-3-3-6-6-6-6----|


  E E E E E E E E E E E E E E E E E E E E E E E E E E E E E E E E
|--------------------------------------------------------------------|
|--------------------------------------------------------------------|
|-5-5-5-5-5-5-5-5-5--------------------------------------------------|
|-5-5-5-5-5-5-5-5-5-5-5-5-5-5-5-5-5-8-8-8-8-8-8-8-8-5-5-5-8-8-8-8----|
|-3-3-3-3-3-3-3-3-3-5-5-5-5-5-5-5-5-8-8-8-8-8-8-8-8-5-5-5-8-8-8-8----|
|-------------------3-3-3-3-3-3-3-3-6-6-6-6-6-6-6-6-3-3-3-6-6-6-6----|


 Bridge
  W        W        W        H    H
|-3--------6--------4--------4----6----|
|-4--------6--------4--------4----6----|
|-5--------7--------5--------5----7----|
|-5--------8--------6--------6----8----|
|-3--------8--------6--------6----8----|
|----------6--------4--------4----6----|


  W        H    H    E E E E E E E E E E E E E E E E
|-3--------6----6----4-4-4-4-4-4-4-4-4-4-4-4-6-6-6-6----|
|-4--------6----6----4-4-4-4-4-4-4-4-4-4-4-4-6-6-6-6----|
|-5--------7----7----5-5-5-5-5-5-5-5-5-5-5-5-7-7-7-7----|
|-5--------8----8----6-6-6-6-6-6-6-6-6-6-6-6-8-8-8-8----|
|-3--------8----8----6-6-6-6-6-6-6-6-6-6-6-6-8-8-8-8----|
|----------6----6----4-4-4-4-4-4-4-4-4-4-4-4-6-6-6-6----|


 Chorus
  Q  Q  E E E Q  E E E E E E E Q  Q  E E E Q  E E E E E E E
|-3--3--3-3-3-6--6-6-6-6-6-6-6-4--4--4-4-4-4--4-4-4-6-6-6-6----|
|-4--4--4-4-4-6--6-6-6-6-6-6-6-4--4--4-4-4-4--4-4-4-6-6-6-6----|
|-5--5--5-5-5-7--7-7-7-7-7-7-7-5--5--5-5-5-5--5-5-5-7-7-7-7----|
|-5--5--5-5-5-8--8-8-8-8-8-8-8-6--6--6-6-6-6--6-6-6-8-8-8-8----|
|-3--3--3-3-3-8--8-8-8-8-8-8-8-6--6--6-6-6-6--6-6-6-8-8-8-8----|
|-------------6--6-6-6-6-6-6-6-4--4--4-4-4-4--4-4-4-6-6-6-6----|


  Q  Q  E E E Q  E E E E E E E Q  Q  E E E Q  E E E E E E E
|-3--3--3-3-3-6--6-6-6-6-6-6-6-4--4--4-4-4-4--4-4-4-6-6-6-6----|
|-4--4--4-4-4-6--6-6-6-6-6-6-6-4--4--4-4-4-4--4-4-4-6-6-6-6----|
|-5--5--5-5-5-7--7-7-7-7-7-7-7-5--5--5-5-5-5--5-5-5-7-7-7-7----|
|-5--5--5-5-5-8--8-8-8-8-8-8-8-6--6--6-6-6-6--6-6-6-8-8-8-8----|
|-3--3--3-3-3-8--8-8-8-8-8-8-8-6--6--6-6-6-6--6-6-6-8-8-8-8----|
|-------------6--6-6-6-6-6-6-6-4--4--4-4-4-4--4-4-4-6-6-6-6----|


  Q  Q  E E E Q  E E E E E E E Q  Q  E E E Q  E E E E E E E
|-3--3--3-3-3-6--6-6-6-6-6-6-6-4--4--4-4-4-4--4-4-4-6-6-6-6----|
|-4--4--4-4-4-6--6-6-6-6-6-6-6-4--4--4-4-4-4--4-4-4-6-6-6-6----|
|-5--5--5-5-5-7--7-7-7-7-7-7-7-5--5--5-5-5-5--5-5-5-7-7-7-7----|
|-5--5--5-5-5-8--8-8-8-8-8-8-8-6--6--6-6-6-6--6-6-6-8-8-8-8----|
|-3--3--3-3-3-8--8-8-8-8-8-8-8-6--6--6-6-6-6--6-6-6-8-8-8-8----|
|-------------6--6-6-6-6-6-6-6-4--4--4-4-4-4--4-4-4-6-6-6-6----|


  Q  Q  E E E Q  E E E E E E E Q  Q  E E E Q  E E E E E E E
|-3--3--3-3-3-6--6-6-6-6-6-6-6-4--4--4-4-4-4--4-4-4-6-6-6-6----|
|-4--4--4-4-4-6--6-6-6-6-6-6-6-4--4--4-4-4-4--4-4-4-6-6-6-6----|
|-5--5--5-5-5-7--7-7-7-7-7-7-7-5--5--5-5-5-5--5-5-5-7-7-7-7----|
|-5--5--5-5-5-8--8-8-8-8-8-8-8-6--6--6-6-6-6--6-6-6-8-8-8-8----|
|-3--3--3-3-3-8--8-8-8-8-8-8-8-6--6--6-6-6-6--6-6-6-8-8-8-8----|
|-------------6--6-6-6-6-6-6-6-4--4--4-4-4-4--4-4-4-6-6-6-6----|


  W
|-3----|
|-4----|
|-5----|
|-5----|
|-3----|
|------|
            
Hard to play? Try these video lessons and learn fast. | Correct




comments powered by Disqus
↑ Back to top | Tablatures and chords are parodies/interpretations of the original songs. You may use it for private study, scholarship, research or language learning purposes only