» » »

Rolling In The Deep Tabs (ver.3)

Artists:  A B C D E F G H I J K L M N O P Q R S T U V W X Y Z # 

Rolling In The Deep Tabs (ver.3)

Adele
Rating:
0/5 (0 votes)

Hard to play? Try these video lessons and learn fast.
                

p.m. palm mute
x scratch

--------|-----------------------------------|---------------------------------|
--------|-----------------------------------|---------------------------------|
--------|-----------------------------------|---------------------------------|
--------|-----------------------------10-10-|---------------------------------|
--------|-----------------------------------|---------------------------------|
--------|-8-8-8-8-8-8-8-8-8-8-8-8-8-8-------|---------------------------------|
    Heavy P.M.

--------|-----------------------------------------------------------------|---|
--------|-----------------------------------------------------------------|---|
--------|-----------------------------------------------------------------|---|
--------|-----------------------------------------------------------------|---|
--------|-----------------------------------------------------------------|---|
--------|-8-8-8-8-8-8-8-8-8-3-3-3-3-3-3-3-6-6-6-6-6-6-6-6-3-3-3-3-6-6-6-6-|---|
    Verse Heavy P.M.  (Cm G A# G A#)

--------|------------------------------------------------------------------|--|
--------|------------------------------------------------------------------|--|
--------|-5----------------------------------------------------------------|--|
--------|-6--------------8----------------8--5-----------------------------|--|
--------|----------------8----------------8--5-----------------------------|--|
--------|----------------x----------------x--x-----------------------------|--|
  G# A# Gm "The scars of your love remind me of us.  They keep me thinkings

--------|-----------------------------------------------------------------|---|
--------|-----------------------------------------------------------------|---|
--------|--------------------4--5---------5----5-5------------------------|---|
--------|--------------------5--6---------6----6-6-8-------------------8--|---|
--------|------------------------------------------8-------------------8--|---|
--------|------------------------------------------x-------------------x--|---|
  G G# A# that we almost had it all.  The scars of your love they keep me


--------|-------------------------------------------------------------|-------|
--------|-------------------------------------------------------------|-------|
--------|-----------------------3----4---------4------4--------4------|-------|
--------|--5-------------------------5---------5------5--------5------|-------|
--------|--5----------------------------------------------------------|-------|
--------|--x----------------------------------------------------------|-------|
  Gm  G    breathless.  I can't help feeling.     We  could of had it


--------|--------------------------------------------------------------------|
--------|--------------------------------------------------------------------|
--------|--------------------------------------------------------------------|
--------|--------------------------------------------------------------------|
--------|--------------------------------------------------------------------|
--------|-8-8-8-8-8-8-8-8-8-3-3-3-3-3-3-3-3-4-4-4-4-4-4-4-4-4-4-4-4-6-6-6-6--|
     Chorus (Cm Gm G# A#)


--------|------------------------------------|--------------------------------|
--------|------------------------------------|--------------------------------|
--------|------------------------------------|--------------------------------|
--------|------------------------------------|--------------------------------|
--------|------------------------------------|--------------------------------|
--------|------------------------------------|--------------------------------|
    Chorus 2 (Cm Gm G# A# Cm     A#        )
            
Hard to play? Try these video lessons and learn fast. | Correct




comments powered by Disqus
↑ Back to top | Tablatures and chords are parodies/interpretations of the original songs. You may use it for private study, scholarship, research or language learning purposes only