>
 >
Best For Last 3

Best For Last 3 Bass Tabs

Adele - Best For Last 3 chords, tabs, tablatures, lyrics

Guitar lessons | Add/correct | Request | Top 50 tabs Artists:  A B C D E F G H I J K L M N O P Q R S T U V W X Y Z 0-9

Best For Last 3 Bass Tabs – Adele

CD, Sheet music, Poster

Do you like Best For Last 3? Share with your friends now
Bass TabsBass Tabs v2Bass Tabs v3Bass Tabs v4ChordsChords v2Ukulele
Standard Bass tuning & a very fun one to play :) JUST NEED TO LISTEN TO SONG FOR TIMING :)

hopefully its pretty accurate :D

HAPPY PLAYING :)

Best For Last - ADELE: 19 
Intro:

G|--------------------------------------------|
D|----4---5---4---2---------4---5---7---9-----|
A|----5---7---5---3---2/3---5---7---9---10----|
E|--------------------------------------------|

Verse:

G|--------------------------|        
D|----4---5---4---2---------|                                    X4
A|----5---7---5---3---2/3---|
E|--------------------------|

Wait, do you see my heart on my sleeve?
It's been there for days on end and
It's been waiting for you to open up
Yours too baby, come on now
I'm trying to tell you just how
I'd like to hear the words roll out of your mouth finally
Say that it's always been me

G|--------------------------------------------------|
D|------4-4-4---0--5-5-5---0--7-7-7---0---9-9-9---0-|            X3
A|----5-------0---7------0---9------0---10------0---|
E|--------------------------------------------------|

G|-------------------------------------|
D|------4-4-4---0--5-5-5---0--7----9/4-|                         X1
A|----5-------0---7------0---9--10-----|
E|-------------------------------------|

This made you feel a way you've never felt before
And I'm all you need and that you never want more
Then you'd say all of the right things without a clue
But you'd save the best for last
Like I'm the one for you

Chorus:

G|-------------------------------------------------------|    
D|--------4-4---0------5-5---0-----7-7---0-------9-9---0-|     
A|----5-5-----0----7-7-----0---9-9-----0---10-10-----0---|
E|-------------------------------------------------------|   -| 
                                                              |- X2  
G|---------------------------------------|                   -| 
D|--------4-4---0------5-5---0---7---9/4-|
A|----5-5-----0----7-7-----0---9---10----|
E|---------------------------------------|

You should know that you're just a temporary fix
This isn't a rooted with you it don't mean that much to me
You're just a filler in the space that happened to be free
How dare you think you'd get away with trying to play me.

Post Chorus:

G|-------------------------------------------------------|    
D|--------4-4---0------5-5---0-----7-7---0-------9-9---0-|     
A|----5-5-----0----7-7-----0---9-9-----0---10-10-----0---|
E|-------------------------------------------------------|

G|--------------------------------------------------------|    
D|--------4-4---0------5-5---0-----7-7---0--9----7---5----|     
A|----5-5-----0----7-7-----0---9-9-----0----10---9---7----|
E|--------------------------------------------------------|

Verse:

G|--------------------------|        
D|----4---5---4---2---------|                                    X8
A|----5---7---5---3---2/3---|
E|--------------------------|

Why is it every time I think I've tried my hardest
It turns out it ain't enough, you're still not mentioning love
What am I supposed to do to make you want me properly?
I'm taking these chances and getting nowhere
And though I'm trying my hardest you go back to her
And I think that I know things may never change
I'm still hoping one day I might hear you say

G|--------------------------------------------------|
D|------4-4-4---0--5-5-5---0--7-7-7---0---9-9-9---0-|            X3
A|----5-------0---7------0---9------0---10------0---|
E|--------------------------------------------------|

G|-------------------------------------|
D|------4-4-4---0--5-5-5---0--7----9/4-|                         X1
A|----5-------0---7------0---9--10-----|
E|-------------------------------------|

I make you feel a way you've never felt before
And I'm all you need and that you never want more
Then you'd say all of the right things without a clue
But you'd save the best for last
Like I'm the one for you

Chorus:

G|-------------------------------------------------------|    
D|--------4-4---0------5-5---0-----7-7---0-------9-9---0-|     
A|----5-5-----0----7-7-----0---9-9-----0---10-10-----0---|
E|-------------------------------------------------------|   -| 
                                                              |- X2  
G|---------------------------------------|                   -| 
D|--------4-4---0------5-5---0---7---9/4-|
A|----5-5-----0----7-7-----0---9---10----|
E|---------------------------------------|

You should know that you're just a temporary fix
This isn't a routine with you it don't mean that much to me
You're just a filler in the space that happened to be free
How dare you think you'd get away with trying to play me

Post:

G|-------------------------------------------------------|    
D|--------4-4---0------5-5---0-----7-7---0-------9-9---0-|     
A|----5-5-----0----7-7-----0---9-9-----0---10-10-----0---|
E|-------------------------------------------------------|

G|--------------------------------------------------------|    
D|--------4-4---0------5-5---0-----7-7---0--9----7---5----|     
A|----5-5-----0----7-7-----0---9-9-----0----10---9---7----|
E|--------------------------------------------------------|

Bridge: 

G|--------------------------|        
D|----4---5---4---2---------|                                   
A|----5---7---5---3---2/3---|                                    X2
E|--------------------------|

But, despite the truth that I know
I find it hard to let go and give up on you
Seems I love the things you do

     
G|----------------------------------------------------|                                    
D|---------4-4---0------5-5---0-----4-4---0--2--------|          X1
A|-----5-5-----0----7-7-----0---5-5-----0----3--2/3---|
E|----------------------------------------------------|

G|--------------------------------------------|                                    
D|---------4-4---0------5-5---0--4---2--------|                  
A|-----5-5-----0----7-7-----0----5---3--2/3---|                  X2   
E|--------------------------------------------|

Like the meaner you treat me more eager I am
To persist with this heartbreak, running around
And I will do until I find myself with you and


G|---------------------|
D|---4---5---7---9-----|                                         X4
A|---5---7---9---10----|
E|---------------------|

Make you feel a way you've never felt before
And be all you need so that you'll never want more
And you'll say all of the right things without a clue
And you'll be the one for me and me the one for you

Outro:

G|-------------------------------------------------------|    
D|--------4-4---0------5-5---0-----7-7---0-------9-9---0-|   X3  
A|----5-5-----0----7-7-----0---9-9-----0---10-10-----0---|
E|-------------------------------------------------------|          
                                                                 
G|---------------------------------------------------------|    
D|--------4-4---0------5-5---0-----7-7---0--9----7---5---4-|     
A|----5-5-----0----7-7-----0---9-9-----0----10---9---7---5-|
E|---------------------------------------------------------|





Comments


Popular Adele tabs & chords
Rolling In The Deep 3 Bass Tabs
Crazy For You Chords
Hometown Glory 1 Chords
Hometown Glory 4 Chords
Now And Then 1 Chords
To Make You Feel My Love 1 Chords
First Love Tabs
Hometown Glory 3 Tabs
Daydreamer Ukulele
Melt My Heart To Stone Ukulele


Song lyrics



↑ Back to top | Tablatures and chords are parodies/interpretations of the original songs. You may use it for private study, scholarship, research or language learning purposes only
© 2014 AZChords.com Contact us | Privacy policy | DMCA | Add/correct tabs | Request tabs | Top 50 tabs