» » »

Best For Last Bass tabs (ver.2)

Artists:  A B C D E F G H I J K L M N O P Q R S T U V W X Y Z # 

Best For Last Bass tabs (ver.2)

Adele
Rating:
0/5 (0 votes)
Tabs too difficult? Try these video lessons and learn fast.
                -------------------------------------------------------------------------------
			     BEST FOR LAST - Adele
-------------------------------------------------------------------------------


Hopefully, this is an accurate tab. Hit me up with any questions at my email up there. :)


Tuning:Standard EADG

Part 1 (x3)
G|---------------------------------------------------------------------------|
D|---4-----7-----4-----3-----2-----------------------------------------------|
A|---5-----5-----5-----2-----2-----------------------------------------------|
E|---------------------------------------------------------------------------|

Part 2 (x1)
G|---------------------------------------------------------------------------|
D|---4-----7-----4-----7------9-----10---------------------------------------|
A|---5-----5-----5-----5------7------9---------------------------------------|
E|---------------------------------------------------------------------------|

Chorus
G|---------------------------------------------------------------------------|
D|-------4-------5-------7--------9------------------------------------------|
A|---0-5---0-5-7---0-7-9---0-9-10---0-10-------------------------------------|
E|---------------------------------------------------------------------------|

Ending
G|---------------------------------------------------------------------------|
D|-------4-------5-------7--------9-------10----9----7---5-------------------|
A|---0-5---0-5-7---0-7-9---0-9-10---0-10---9----7----5---4-------------------|
E|---------------------------------------------------------------------------|

Order

Part 1- x3 then play part 2 1x
Chorus x2
Part 1- x3 then play part 2 1x
Chorus x3
Part 2
Chorus- x3
Part 2
Chorus- x3
Ending

There ya go. I think it's about 99% right. First tab!







| /  slide up
| \  slide down
| h  hammer-on
| p  pull-off
| ~  vibrato
| +  harmonic
| x  Mute note
=============================================================================
            
Tabs too difficult? Try these video lessons and learn fast.


comments powered by Disqus
↑ Back to top | Tablatures and chords are parodies/interpretations of the original songs. You may use it for private study, scholarship, research or language learning purposes only