>
 >
What Do You Want From Me Intro

What Do You Want From Me Intro Guitar Tabs

Adam Lambert - What Do You Want From Me Intro chords, tabs, tablatures, lyrics

Guitar lessons | Add/correct | Request | Top 50 tabs Artists:  A B C D E F G H I J K L M N O P Q R S T U V W X Y Z 0-9

What Do You Want From Me Intro Guitar Tabs – Adam Lambert

CD, Sheet music, Poster

Do you like What Do You Want From Me Intro? Share with your friends now
TabsTabs v2
with this you can play the whole song along.
Have fun!


Part 1
e|-10-10-x-x--9---14-14-14-14-7-7----14-14-14-14-7-7-----|
B|-12-12-x-x--10--15-15-15-15-8-8----15-15-15-15-8-8-----|
G|-------------------------------------------------------|   
D|-------------------------------------------------------|
A|-------------------------------------------------------|
E|-------------------------------------------------------|

Part 2
e|-----------------------------------------------------------------------|
B|-----------------------------------------------------------------------|
G|--------------------------------------4-4-4/--7-7-7-7-7-7--------------|
D|-2-2--2-2-2-2---5-5-5/--7-7-7-7-7-7---4-4-4/--7-7-7-7-7-7--------------|
A|-2-2--2-2-2-2---5-5-5/--7-7-7-7-7-7---2-2-2/--5-5-5-5-5-5--------------|
E|-0-0--0-0-0-0---3-3-3/--5-5-5-5-5-5------------------------------------|

Chorus
e|------------------------------------------------|
B|------------------------------------------------|
G|------------------------4-4-4/---7-7-7-7-7-7----|
D|-5-5-5/---7-7-7-7-7-7---4-4-4/---7-7-7-7-7-7----|
A|-5-5-5/---7-7-7-7-7-7---2-2-2/---5-5-5-5-5-5----|
E|-3-3-3/---5-5-5-5-5-5---------------------------|

part 3
e|-------------------------------------------------|
B|-------------------------------------------------|
G|-------------------------------------------------|
D|-5-5-5/---7-7-7-7-7-7----------------------------| 
A|-5-5-5/---7-5-5-5-5-5----------------------------|
E|-3-3-3/---5-5-5-5-5-5----------------------------|

Solo
e|-------------------------------------------------|
B|-12---10-12--------------------------------------|
G|-------------11--9-11----------------------------|
D|------------------------12--11-------------------| 
A|--------------------------------12-9-------------|
E|-------------------------------------------------|

I did this song in parts, here is what part you have to play when.
Part 1 5x
Part 2 1x
Chorus 4x
Part 3 1x
Part 1 3x
Part 2 1x
Chorus 4x
Part 3 1x
Solo   2x
Part 1 2x
Part 2 1x
Chorus 12x
Part 3 1x

Lyrics

Hey, slow it down whataya want from me
Whataya want from me
Yeah I'm afraid whataya want from me
Whataya want from me

There might have been a time
When I would give myself away
Oooh once upon a time I didn't give a damn
But now, here we are so whataya want from me
Whataya want from me

Just don't give up I'm workin it out
Please don't give in, I will let you down
It messed me up, need a second to breathe
Just keep coming around
Hey, whataya want from me
Whataya want from me
Whataya want from me

Yeah, it's plain to see
that baby you're beautiful
And there's nothing wrong with you
It's me, I'm a freak 
but thanks for lovin' me
Cause you're doing it perfectly


There might have been a time
When I would let you slip away
I wouldn't even try
But I think you could save my life

Just don't give up I'm workin' it out
Please don't give in, I won't let you down
It messed me up, need a second to breathe
Just keep comin around
Hey, whataya want from me 
Whataya want from me 

Just don't give up on me
I won't let you down
No, I won't let you down

just don't give up
I'm workin it out
Please don't give in,
I won't let you down
It messed me up 
Need a second to breathe
Just keep coming around
Hey, whataya want from me

Just don't give up I'm workin' it out
Please don't give in, i won't let you down
It messed me up, need a second to breathe
Just keep coming around
Hey, whataya want from me 
whataya want from me 
whataya want from me


Its an easy song to play, but you can sure impress your friends with this, so have fun! ;)





Comments


Popular Adam Lambert tabs & chords
Fever 1 Chords
For Your Entertainment Chords
I Just Love You Chords
If I Can't Have You 1 Chords
Naked Love Chords
Sleepwalker 3 Chords
Time For Miracles 2 Chords
Whataya Want From Me 1 Tabs
Whataya Want From Me 5 Tabs
Time For Miracles Ukulele


Song lyrics



↑ Back to top | Tablatures and chords are parodies/interpretations of the original songs. You may use it for private study, scholarship, research or language learning purposes only
© 2014 AZChords.com Contact us | Privacy policy | DMCA | Add/correct tabs | Request tabs | Top 50 tabs