» » »

Adam Lambert, Time For Miracles Tabs (ver.1)

Artists:  A B C D E F G H I J K L M N O P Q R S T U V W X Y Z # 

Time For Miracles Tabs (ver.1)

Adam Lambert Tabs
 Rating:
4.2/5 (5 votes)
Time For Miracles lessons Tabs too difficult? Try these video lessons and learn fast
                Some Chords:
Gm6:355400
Aadd9:577600



e|-10p9-9------------10p9-9-----------------------|
B|--------10----10----------10--------------------|
G|-----------11----------------11-----------------|
D|------------------------------------------------|
A|------------------------------------------------|
E|------------------------------------------------|

D
     It’s late at night and I can’t sleep
Bm
Missing you just runs too deep
   F#m                              A
Oh I can’t be thinking of your smile
D
Every kiss you can’t forget
     Bm
This aching heart ain’t broken yet
   F#m                          A
Oh God I wish I could make you see
      Em                      A
Cause I know this flame isn’t dying
    Em                       A
So nothing can stop me from trying

(Chorus)
D
Baby you know that
F#                  Bm
Maybe it’s time for miracles
        G                       
Cause I ain’t giving up on love
D 
  You know that
F#                  Bm
Maybe it’s time for miracles
         C                     G
Cause I ain’t giving up on love
     Gm                   D Bm F#m A 
No I ain’t giving up on us


D
I just want to be with you
    Bm
Cuz living is so hard to do
     F#m                                   A
When all I know is trapped inside your eyes
    D
The future I cannot forget
     Bm 
This aching heart ain’t broken yet
   F#m                          A
Oh God I wish I could make you see
      Em                      A
Cause I know this flame isn’t dying
   Em                         A
So nothing can stop me from trying


D
Baby you know that
F#                  Bm
Maybe it’s time for miracles
        G                       
Cause I ain’t giving up on love
D 
  You know that
F#                  Bm
Maybe it’s time for miracles
         C           G      A
Cause I ain’t giving up on love
   

e|--------------------------------------------|
B|--------------------------------------------|
G|--------------------------------------------|
D|--------------------------0------1----------|
A|-0-----------2-2---3-3------2------2--------|
E|---3--0--3----------------------------------|


E               Gm6     Aadd9  E
   Baby can you feel it co----ming
               Gm6          Aaad9
You know I can hear it hear every soul 
(chords)
e|--0------0--------0------------0----------|
B|--0------0--------0------------0----------|
G|--9------8--------7------------6----------|
D|--9------9--------7------------7----------|
A|--7------6--------5------------4----------|
E|------------------------------------------|
      Baby ohh when youuu feeeel meee feeling you

e|------------------------------------------|
B|----------------------------------3-------|
G|------------------0---0-2-4-2-4-5---------|
D|--------0-2-0-2-4---4---------------------|
A|-3-2-3------------------------------------|
E|------------------------------------------|
                      You know it’s time…


E
  Baby you know 
Ab                  Dbm
Maybe it’s time for miracles
      A                   E
Cuz I ain’t giving up on love

You know 
Ab                  Dbm
Maybe it’s time for miracles
      D            A      E
Cuz I ain’t giving up on love
 D                A
I ain’t giving up on..
      Am                 E
no I ain’t giving up on us
            
Submit corrections

comments powered by Disqus
↑ Back to top | Adam Lambert Tabs for Time For Miracles. Lyrics for acoustic guitar and electric guitar. Tablatures and chords are parodies/interpretations of the original songs. You may use it for private study, scholarship, research or language learning purposes only