» » »

Ace Frehley, Wiped Out Tabs (ver.1)

Artists:  A B C D E F G H I J K L M N O P Q R S T U V W X Y Z # 

Wiped Out Tabs (ver.1)

Ace Frehley Tabs
 Rating:
4/5 (4 votes)
Wiped Out lessons Tabs too difficult? Try these video lessons and learn fast
1
                Artist - Ace Frehley
Song - Wiped Out
Album - Ace Frehley








Intro W/ Delay
e:---------------------------------------------------------------------------|
B:---------------19-----17----12----10---------------------------------------|
G:---------------19-----17----12----10-------3/5--5--5-5-5----5-5-3--5~---3/5|
D:---------------19-----17----12----10-------3/5--5--5-5-5----5-5-3--3~---3/5|
A:-------------------------------------------3----3--3-3-3----3-3---------3--|
E:---------------------------------------------------------------------------|




                       "Went to a party...."
e:--------------------------------------------3~-----------------------------|
B:--------------------------3--3-3-3---3-3-3--3~--------3--3-3-3---3-3-------|
G:--5--5-5-5---3-5-----0/2--2--2-2-2---2-2-0--0~---0/2--2--2-2-2---0-2-------|
D:--5--5-5-5---3-5-----0----0--0-0-0---0-0-0--0~---0----0--0-0-0---0-0-------|
A:--3--3-3-3-----3-----------------------------------------------------------|
E:---------------------------------------------------------------------------|




   "oh....oh.....oh.......I....was..."      guitars 1 & 2
e:---------------------------------------------------------------------------|
B:--3~------------------------------------15~------------14~---------12~-----|
G:--2~-----5~----3~-------3~----5~-------------------------------------------|
D:--0~-----5~----3~-------3~----5~------------------------2---2--------------|
A:--0~-----3~----1~-------1~----3~--------5--2--5--2---2--0---0--2----5--2--5|
E:----------------------------------------3--0--3--0---0---------0----3--0--3|





e:---------------------------------------------------------------------------|
B:--------10~---------8~-------------7~-------------5~-----------------------|
G:----------------------------------------------------------------(7b~~~)----|
D:---------2---2-------------------------2---2------------------------2---2--|
A:--2---2--0---0--2----5--2--5--2-----2--0---0--2----5--2--5--2----2--0---0--|
E:--0---0---------0----3--0--3--0-----0---------0----3--0--3--0----0---------|


                                
                                
        "I was wiped out..."
e:-----------------------------|
B:-----------------------------|
G:-----------------------------|
D:-----------------------------|
A:2----------------------------|
E:0----------------------------|



  Solo
e:---------------------------------------------------------------------------|
B:--15--15----------------------------------------------------------15--15---|
G:--14b-14b--14-12-----------------12~------------------------------14b-14b--|
D:----------------14-14---14-12-14------14-12-14--14--14--14--14-------------|
A:---------------------------------------------------------------------------|
E:---------------------------------------------------------------------------|





e:---------------------------------------------------------------------------|
B:-------------------------------------------------------15--15--------------|
G:14-12-----------------12~---14/12----------------------14b-14b--14-12------|
D:-----14-14---14-12-14------------14/12-------12-----------------------14-14|
A:----------------------------------------12/14----10------------------------|
E:---------------------------------------------------------------------------|


                                                   


e:-------------------------------------------------|
B:-------------------------------------------------|
G:------------12~-----------------------------10~~~|
D:---14-12-14-------14-12-14-14---12/14/12---------|
A:----------------------------------------14-------|
E:-------------------------------------------------|
            
Submit corrections

comments powered by Disqus
↑ Back to top | Ace Frehley Tabs for Wiped Out. Lyrics for acoustic guitar and electric guitar. 1 Tablatures and chords are parodies/interpretations of the original songs. You may use it for private study, scholarship, research or language learning purposes only