» » »

Ace Frehley, What's On Your Mind? Bass tabs (ver.1)

Artists:  A B C D E F G H I J K L M N O P Q R S T U V W X Y Z # 

What's On Your Mind? Bass tabs (ver.1)

Ace Frehley Tabs
 Rating:
4/5 (4 votes)
What's On Your Mind? lessons Tabs too difficult? Try these video lessons and learn fast
                --------------------
                                                                                    

Tuned down 1/2-step



Key:
/    = slide up
\    = slide down
b    = bend (whole step)
b^   = bend (1/2 step)
b^^  = bend (1 1/2 steps)
pb   = pre-bend
r    = release-bend
t    = tap with righthand finger
h    = hammer-on
p    = pull-off
~    = Vibrato
*    = Natural Harmonic
#(#) = Trill
**   = Artificial Harmonic
x    = Dead notes (no pitch)
P.M. = Palm mute (- -> underneath indicates which notes)
(\)  = Dive w\bar
(/)  = Release w\bar
Tp   = Tap w\plectrum





Rhythm Fig. 1
                                                  
Gb|--------------------------------------------------|
Db|--------------------------------------------------|
Ab|--5--5------5--5------5--5------5--5--------------|
Eb|--------------------------------------------------|


                                            
Gb|--------------------------------------------------|
Db|--------------------------------------------------|
Ab|--3------2------3------2------3----2--------------|
Eb|--------------------------------------------------|




Rhythm Fig. 2
                                          
Gb|--------------------------------------------------|
Db|--------------------------------------------------|
Ab|--5--------4--------2--------0--------------------|
Eb|--------------------------------------------------|


                         End 1                                            
Gb|---------------------|----------------------------|
Db|---------------------|----------------------------|
Ab|---------------------|-----------0----------------|
Eb|--3----0--3----0--3--|--3--2--0-------------------|



Rhythm Fig. 3
                                                      
Gb|--------------------------------------------------|
Db|--------------------------------------------------|
Ab|--2--2--2--2--2--2--2--2--3--3--3--3--3--3--3--3--|
Eb|--------------------------------------------------|


                                                
Gb|--------------------------------------------------|
Db|--------------------------------------------------|
Ab|--5--5--5--5--5--5--5--5-------5------3-----------|
Eb|--------------------------------------------------|



Gb|--------------------------------------------------|
Db|--------------------------------------------------|
Ab|--2--2--2--2--2--2--2--2--3--3--3--3--3--3--3--3--|
Eb|--------------------------------------------------|


                                                
Gb|--------------------------------------------------|
Db|--------------------------------------------------|
Ab|--5--5--5--5--5--5--5--5--------------------------|
Eb|--------------------------------------------------|


Rhythm Fig. 4
                                                            
Gb|--------------------------------------------------|
Db|--------------------------------------------------|
Ab|-----------5------0------0------0------0----0--0--|
Eb|--3--2--0-----------------------------------------|
            
Submit corrections

comments powered by Disqus
↑ Back to top | Ace Frehley Bass for What's On Your Mind?. Lyrics for acoustic guitar and electric guitar. Tablatures and chords are parodies/interpretations of the original songs. You may use it for private study, scholarship, research or language learning purposes only