» » »

Insane Tabs (ver.1)

Artists:  A B C D E F G H I J K L M N O P Q R S T U V W X Y Z # 

Insane Tabs (ver.1)

Ace Frehley
Rating:
5/5 (1 vote)

Hard to play? Try these video lessons and learn fast.
                Key:
/    = slide up
\    = slide down
b    = bend (whole step)
b^   = bend (1/2 step)
b^^  = bend (1 1/2 steps)
pb   = pre-bend
r    = release-bend
t    = tap with righthand finger
h    = hammer-on
p    = pull-off
~    = Vibrato
*    = Natural Harmonic
#(#) = Trill
**   = Artificial Harmonic
x    = Dead notes (no pitch)
P.M. = Palm mute (- -> underneath indicates which notes)
(\)  = Dive w\bar
(/)  = Release w\bar
Tp   = Tap w\plectrum




Rhythm Fig. 1A & B  
Eb|-------------------------------------------------------------|
Bb|-------------------------------------------------------------|
Gb|--7--7--------------------------9--7--9----12--12--12--12--9-|
Db|--7--7---5p2p0-5p2p0------------9--7--9----12--12--12--12--9-|
Ab|--4--5--------------5p2p0-------7--5--7----10--10--10--9---7-|
Eb|-------------------------3b-3p0------------------------------|


Eb|-------------------------------------------------------------|
Bb|-------------------------------------------------------------|
Gb|--2-2-2--0---2--2--------------------------------------------|
Db|--2-2-2--0---2--2--------------------------------------------|
Ab|--0-0-0--x---0--0--------------------------------------------|
Eb|---------3---------------------------------------------------|


Rhythm Fig. 1c
Eb|-------------------------------------------------------------|
Bb|-------------------------------------------------------------|
Gb|----------9--7--9----12--12--12--12--9-----2-2-2--0---2--2---|
Db|----------9--7--9----12--12--12--12--9-----2-2-2--0---2--2---|
Ab|----------7--5--7----10--10--10--9---7-----0-0-0--x---0--0---|
Eb|--------------------------------------------------3----------|



Rhythm Fig. 2a
Eb|---------0---------------------------------------------------|
Bb|---------0---------------------------------------------------|
Gb|--------------7---------------------------7--9-9---7--9-9-9--|
Db|--------------7--------------7------------7--9-9---7--9-9-9--|
Ab|--------------5--------------7------------5--7-7---5--7-7-7--|
Eb|--3--2--0--------------------5-------------------------------|



Rhythm Fig. 2b
Eb|---------0----2-------------0--------------------------------|
Bb|---------0----3-------------2--------------------------------|
Gb|--------------2-------------2-------------7--9-9---7--9-9-9--|
Db|--------------0-------------2-------------7--9-9---7--9-9-9--|
Ab|----------------------------0-------------5--7-7---5--7-7-7--|
Eb|--3--2--0----------------------------------------------------|


Rhythm Fig. 3 A & B
Eb|------------------------------------------------------------|
Bb|------------------------------------------------------------|
Gb|------------------x-x-5-5-5/7-7-----------------------------|
Db|-x-x-5-5-5/7-7----x-x-5-5-5/7-7----x-x-5-5-5/7-7---5-x-5--2-|
Ab|-x-x-5-5-5/7-7----x-x-3-3-3/5-5----x-x-5-5-5/7-7---5-x-5--2-|
Eb|-x-x-3-3-3/5-5---------------------x-x-3-3-3/5-5---3-x-3--0-|



Eb|------------------------------------------------------------|
Bb|------------------------------------------------------------|
Gb|----------------x-x-5-5-5/7-7-----------------x-x-5-5-5/7-7-|
Db|-x-x-5-5-5/7-7--x-x-5-5-5/7-7--x-x-5-5-5/7-7--x-x-5-5-5/7-7-|
Ab|-x-x-5-5-5/7-7--x-x-3-3-3/5-5--x-x-5-5-5/7-7--x-x-3-3-3/5-5-|
Eb|-x-x-3-3-3/5-5-----------------x-x-3-3-3/5-5----------------|



Riff 1
Eb|-------------------------------------------------------------|
Bb|-------------------------------------------------------------|
Gb|---------9~~-------------------------------------------------|
Db|-------------------------------------------------------------|
Ab|-------------------------------------------------------------|
Eb|-------------------------------------------------------------|
         [Feedback]
Riff 2
Eb|-------------------------------------------------------------|
Bb|-------------------------------------------------------------|
Gb|---------9---------------------------------------------------|
Db|---------9---------------------------------------------------|
Ab|---------7---------------------------------------------------|
Eb|-------------------------------------------------------------|
         [Pick up on/off ]


Solo


Eb|-------------------------------------------------------------|
Bb|-----15---------------------15---------------15b~---15b~~----|
Gb|-----14b--12--14--12--------14b--12--14--12------------------|
Db|--------------------14~--------------------------------------|
Ab|-------------------------------------------------------------|
Eb|-------------------------------------------------------------|


Eb|-------------------------------------------------------------|
Bb|-12h15p12----------------------------------------------------|
Gb|---------12h14p12h14p12~---------12h14p12--------------------|
Db|------------------------14p12h14~~-------14-12-14~12---------|
Ab|----------------------------------------------------14-12-10~|
Eb|-------------------------------------------------------------|


Eb|-------------------------------------------------------------|
Bb|-----15---------------------15---------------15b~---15b~~----|
Gb|-----14b--12--14--12--------14b--12--14--12------------------|
Db|--------------------14~--------------------------------------|
Ab|-------------------------------------------------------------|
Eb|-------------------------------------------------------------|



Eb|-----------15b~-15b~---15p12-15p12---------------------------|
Bb|-15p12-----------------------------15p12-15p12---------------|
Gb|-------14---------------------------------------14p12--14p12-|
Db|-------------------------------------------------------------|
Ab|-------------------------------------------------------------|
Eb|-------------------------------------------------------------|


Eb|-------------------------------------------------------------|
Bb|-------------------------------------------------------------|
Gb|-------------------------------------------------12h14-12h14-|
Db|-14p12--14p12-----------------------12h14-12h14--------------|
Ab|---------------14p12--14p12~~-12h14--------------------------|
Eb|-------------------------------------------------------------|


Eb|--------------12--15b--15b~~-17b~--17b~~--17b~~~~------------|
Bb|-12h15-12h15-------------------------------------------------|
Gb|-------------------------------------------------------------|
Db|-------------------------------------------------------------|
Ab|-------------------------------------------------------------|
Eb|-------------------------------------------------------------|


Eb|-17b~~-17b--17p15h17-----------------------------------------|
Bb|--------------------15h17p15-17b-----------------------------|
Gb|----------------------------------4p2p0-4p2p0----------------|
Db|---------------------------------------------4p2p0-4p2p0-----|
Ab|--------------------------------------------------------4p2p0|
Eb|-------------------------------------------------------------|
                        <----5x---->


Eb|---------------0---------------------------------------------|
Bb|---------------0---------------------------------------------|
Gb|-------------------------------------------------------------|
Db|-------------------------------------------------------------|
Ab|-4p2p0-------------------------------------------------------|
Eb|--------3-2--0-----------------------------------------------|
            
Hard to play? Try these video lessons and learn fast. | Correct




comments powered by Disqus
↑ Back to top | Tablatures and chords are parodies/interpretations of the original songs. You may use it for private study, scholarship, research or language learning purposes only