>
 >
Permanent

Permanent Guitar Tabs

Acceptance - Permanent chords, tabs, tablatures, lyrics

Guitar lessons | Add/correct | Request | Top 50 tabs Artists:  A B C D E F G H I J K L M N O P Q R S T U V W X Y Z 0-9

Permanent Guitar Tabs – Acceptance

CD, Sheet music, Poster

Do you like Permanent? Share with your friends now
TabsTabs v2
Acceptance - Permanent
Awesome song.
Tune the low E (6th) string a whole step down to: D, so you can use just your index 
for the initial power chords. (#)= let it ring
My first tab posted.


Intro:
            D     U             D     U
e-----------------------------------------------------|
B-----------------------------------------------------|
G---------------------14------------------11----------|
D-xxxxxxxxx-5-(5)-5----x-(12X)--2-(2)-2----x-(12X)----|
A-xxxxxxxxx-5-(5)-5---12--------2-(2)-2----9----------|
D-xxxxxxxxx-5-(5)-5-------------2-(2)-2---------------|


   D     U             D     U
e---------------------------------------------|
B---------------------------------------------|
G------------14------------------11------(11)-|
D--5-(5)-5----x-(12X)--2-(2)-2----x-(12X)-(x)-|
A--5-(5)-5---12--------2-(2)-2----9-------(9)-|
D--5-(5)-5-------------2-(2)-2----------------|


Verse:

e-------------------------------------------------------|
B-------------------------------------------------------|
G-------------------------------------------------------|
D---5---------2-----------------------------------------| x2
A---5-(14X)---2-(14X)-----------------------------------|
D---5---------2-----------------------------------------|
...............pm (plus some random haromonics)


Chorus

It's permanent...
e-------------------------------------------------------|
B-------------------------------------------------------|
G-------------------------------------------------------|
D---9-9-9--7-7-7-7--2-2-2--5-5-5-5----------------------|
A---9-9-9--7-7-7-7--2-2-2--5-5-5-5----------------------|
D---9-9-9--7-7-7-7--2-2-2--5-5-5-5----------------------|

we'll be watching your back...
e-------------------------------------------------------|
B-------------------------------------------------------|
G-------------------------------------------------------|
D---2--2---x-x---2-2------------------------------------|
A---2--2---x-x---2-2------------------------------------|
D---2--2---x-x---2-2------------------------------------|

following indecisions lasting...
e---------------------------------------------------|
B---------------------------------------------------|
G---------------------------------------------------|
D--9-9-9---7-7-7---5-5-5----------------------------|
A--9-9-9---7-7-7---5-5-5(2X)------------------------|
D--7-7-7---5-5-5---5-5-5----------------------------|


Post chorus

e----------------------------------------------------|
B----------------------------------------------------|
G-------11--------------14---------------------------|  2X
D--2-2--11-(12X)---5-5--14-(12X)---------------------|
A--2-2---9---------5-5--12---------------------------|
D--2-2-------------5-5-------------------------------|


Verse


Chorus

like a river in Arizona...
e-------------------------------------------------------|
B-------------------------------------------------------|
G-------------------------------------------------------|
D--2-2--5--5---9-x-7-x-5--------------------------------|
A--2-2--5--5---9-x-7-x-5--------------------------------|
D--2-2--5--5---9-x-7-x-5--------------------------------|

It's Starting up again...
e-------------------------------------------------------|
B-------------------------------------------------------|
G----11----------11------------7-----------7------------|
D--5--x-(10X)--5--x(10X)----2--x-(10X)--2--x(10X)-------|
A--5--9--------5--9---------2--5--------2--5------------|
D--5-----------5------------2-----------2---------------|

e-----------------------------------------------------|
B-----------------------------------------------------|
G--11-11-11-11-11-11-x-x-x----------------------------|
D---x--x--x--x--x--x-x-x-x(2X)------------------------|
A---9--9--9--9--9--9-x-x-x----------------------------|
D-----------------------------------------------------|

e-----------------------------------------------------|
B-----------------------------------------------------|
G--7--7--7--7--7---7--x-x-x---------------------------|
D--x--x--x--x--x---x--x-x-x(2X)-----------------------|
A--5--5--5--5--5---5--x-x-x---------------------------|
D-----------------------------------------------------|


Chorus

Enjoy... and Please rate.





Comments


Popular Acceptance tabs & chords
Different 1 Chords
Different 5 Chords
This Conversation Is Over Chords
In Too Far 1 Tabs
Over You Intro Tabs
Seeing Is Believing Tabs
Take Cover 2 Tabs
So Contagious Ukulele
So This Is Christmas Ukulele
Take Cover Acustic Ukulele


Song lyrics



↑ Back to top | Tablatures and chords are parodies/interpretations of the original songs. You may use it for private study, scholarship, research or language learning purposes only
© 2014 AZChords.com Contact us | Privacy policy | DMCA | Add/correct tabs | Request tabs | Top 50 tabs