>
 >
Permanent 1

Permanent 1 Guitar Tabs

Acceptance - Permanent 1 chords, tabs, tablatures, lyrics

Guitar lessons | Add/correct | Request | Top 50 tabs Artists:  A B C D E F G H I J K L M N O P Q R S T U V W X Y Z 0-9

Permanent 1 Guitar Tabs – Acceptance

CD, Sheet music, Poster

Do you like Permanent 1? Share with your friends now
TabsTabs v2
PERMANENT BY ACCPENTANCE
TUNING: EADGBe

LIKE WRONG TUNING AND DIFFERENT CHORDS. THIS IS THE WAY THE SONG SOUNDS BEST TO ME SINCE I 
IT BY EAR (UNLIKE SOME WHO WEAR EARMUFFS). I COULD'NT FIGURE OUT THE ENDING BUT 
ITS EASY FOR YOU TO FIND OUT.


Intro:

e-----------------------------------------------|
B-----------------------------------------------|
G------------------14----------------11---------|
D-xxxxxxxxx-5--5----x-(7X)---2--2----x-(7X)-----| X2
A-xxxxxxxxx-5--5---12--------2--2----9----------|
E-xxxxxxxxx-3--3-------------0--0---------------|


Verse:

e-------------------------------------------------------|
B-------------------------------------------------------|
G-------------------------------------------------------|
D---5---------2-----------------------------------------| x2
A---5-(?X)----2-(?X)------------------------------------|
E---3---------0-----------------------------------------|
...............pm (plus some harmonics)


Chorus

It's permanent...
e-------------------------------------------------------|
B-------------------------------------------------------|
G-------------------------------------------------------|
D---9-9-9--7-7-7-7--2-2-2--5-5-5-5----------------------|
A---9-9-9--7-7-7-7--2-2-2--5-5-5-5----------------------|
E---7-7-7--5-5-5-5--0-0-0--3-3-3-3----------------------|

we'll be watching your back...
e-------------------------------------------------------|
B-------------------------------------------------------|
G-------------------------------------------------------|
D---2--2------------------------------------------------| (STRUM 8 TIMES OR WHAT YOU THINK
A---2--2------------------------------------------------|  FEELS RIGHT)
E---0--0------------------------------------------------|

following indecisions lasting...
e----------------------------------------------------------------|
B----------------------------------------------------------------|
G----------------------------------------------------------------|
D--9-9-9---7-7-7---5-5--5----------------------------------------| X2
A--9-9-9---7-7-7---5-5--5-(8X OR UNTIL YOU FEEL IT IS RIGHT)-----|
E--7-7-7---5-5-5---3-3--3----------------------------------------|

e-----------------------------------------------------|
B-----------------------------------------------------|
G-----------------------------------------------------|
D--2-2------------5-5---------------------------------|
A--2-2------------5-5---------------------------------|
E--0-0------------3-3---------------------------------|

following indecisions lasting...
e-----------------------------------------------------------------|
B-----------------------------------------------------------------|
G-----------------------------------------------------------------|
D--9-9-9---7-7-7---5-5--5~----------------------------------------| X2
A--9-9-9---7-7-7---5-5--5~----------------------------------------|
E--7-7-7---5-5-5---3-3--3~----------------------------------------|


Verse

e-------------------------------------------------------|
B-------------------------------------------------------|
G-------------------------------------------------------|
D---5---------2-----------------------------------------| x2
A---5-(?X)----2-(?X)------------------------------------|
E---3---------0-----------------------------------------|
P.M (Haromonics)

Chorus 2

It's permanent...
e-------------------------------------------------------|
B-------------------------------------------------------|
G-------------------------------------------------------|
D---9-9-9--7-7-7-7--2-2-2--5-5-5-5----------------------| 2x (SECOND TIME
A---9-9-9--7-7-7-7--2-2-2--5-5-5-5----------------------|DONT PLAY LAST
E---7-7-7--5-5-5-5--0-0-0--3-3-3-3----------------------|POWER CHORD)

we'll be watching your back...
e-------------------------------------------------------|
B-------------------------------------------------------|
G-------------------------------------------------------|
D---2--2-----5------------------------------------------|(HOWEVER MANY TIME)
A---2--2-----5------------------------------------------|
E---0--0-----3------------------------------------------|

following indecisions lasting...
e-------------------------------------------------------------------|
B-------------------------------------------------------------------|
G-------------------------------------------------------------------|
D--9-9-9--XXX-7-7-7---5-5--5----------------------------------------|
A--9-9-9--XXX-7-7-7---5-5--5-(8X OR UNTIL YOU FEEL IT IS RIGHT)-----|
E--7-7-7--XXX-5-5-5---3-3--3----------------------------------------|

e----------------------------------------------------|
B----------------------------------------------------|
G-------11--------------14---------------------------|
D--2-2---x-(7X)----5-5---x-(7X)----------------------|
A--2-2---9---------5-5--12---------------------------|
E--0-0-------------3-3-------------------------------|

Touching in
e----------------------------------------------------------------|
B----------------------------------------------------------------|
G----------------------------------------------------------------|
D--9-9-9---7-7-7---5-5--5----------------------------------------|
A--9-9-9---7-7-7---5-5--5-(8X OR UNTIL YOU FEEL IT IS RIGHT)-----|
E--7-7-7---5-5-5---3-3--3----------------------------------------|

e----------------------------------------------------|
B----------------------------------------------------|
G-------11--------------14---------------------------|
D--2-2---x-(7X)----5-5---x-(7X)----------------------|
A--2-2---9---------5-5--12---------------------------|
E--0-0-------------3-3-------------------------------|

Bridge

Like a river in Arizona...
e---------------------------------------------------------|
B---------------------------------------------------------|
G---------------------------------------------------------|
D--2~-----5~---9-xX-7-xX-5--------------------------------|
A--2~-----5~---9-xX-7-xX-5--------------------------------|
E--0~-----3~---7-xX-5-xX-3--------------------------------|

It's Starting up again...
e-----------------------------------------------------------|
B-----------------------------------------------------------|
G-----11-----------11------------7-----------7--------------|
D--55--x-(10X)--55--x(10X)----2--x-(10X)--2--x(10X)---------| LEAD PLAY MUTED
A--55--9--------55--9---------2--5--------2--5--------------|  NOTES
E--33-----------33------------0-----------0-----------------|

e-----------------------------------------------------|
B-----------------------------------------------------|
G--11-11-11-11-11-11-x-x-x----------------------------|
D---x--x--x--x--x--x-x-x-x(2X)------------------------|
A---9--9--9--9--9--9-x-x-x----------------------------|
E-----------------------------------------------------|

e-----------------------------------------------------|
B-----------------------------------------------------|
G--7--7--7--7--7---7--x-x-x---------------------------|
D--x--x--x--x--x---x--x-x-x(2X)-----------------------|
A--5--5--5--5--5---5--x-x-x---------------------------|
E-----------------------------------------------------|

Chorus 3

It's permanent...
e-------------------------------------------------------|
B-------------------------------------------------------|
G-------------------------------------------------------|
D---9-9-9--7-7-7-7--2-2-2--5-5-5-5----------------------|
A---9-9-9--7-7-7-7--2-2-2--5-5-5-5----------------------|
E---7-7-7--5-5-5-5--0-0-0--3-3-3-3----------------------|

we'll be watching your back...
e-------------------------------------------------------|
B-------------------------------------------------------|
G-------------------------------------------------------|
D---2--2------------------------------------------------|(STRUM WHAT U FEEL)
A---2--2------------------------------------------------|
E---0--0------------------------------------------------|

It's permanent...
e-------------------------------------------------------|
B-------------------------------------------------------|
G-------------------------------------------------------|
D---9-9-9--7-7-7-7--2-2-2--5-5-5-5----------------------|
A---9-9-9--7-7-7-7--2-2-2--5-5-5-5----------------------|
E---7-7-7--5-5-5-5--0-0-0--3-3-3-3----------------------|

Time is pushing us back...
e-------------------------------------------------------|
B-------------------------------------------------------|
G-------------------------------------------------------|
D---2--2------------------------------------------------|(STRUM 8 TIMES OR
A---2--2------------------------------------------------|WHAT FEELS RIGHT)
E---0--0------------------------------------------------|

following indecisions lasting...
e----------------------------------------------------------------|
B----------------------------------------------------------------|
G----------------------------------------------------------------|
D--9-9-9---7-7-7---5-5--5----------------------------------------|
A--9-9-9---7-7-7---5-5--5-(8X OR UNTIL YOU FEEL IT IS RIGHT)-----|
E--7-7-7---5-5-5---3-3--3----------------------------------------|

ENDING:

I'M NOT SUCH IT SOUNDS LIKE A MIXTURE OF THE PART THAT GOES "WE'LL BE WATCHING YOUR 
AND "PERMANENT"

LEGEND:
~: HOLD NOTE
x: MUTE NOTE
P.M: PALM MUTE





Comments


Popular Acceptance tabs & chords
Black Line To Battlefield Chords
Different 1 Chords
Take Cover Acustic Chords
This Conversation Is Over Chords
Breathless Tabs
Different 1 Tabs
In Too Far 1 Tabs
So Contagious Intro Tabs
Black Line To Battlefield Ukulele
Different 2 Ukulele


Song lyrics



↑ Back to top | Tablatures and chords are parodies/interpretations of the original songs. You may use it for private study, scholarship, research or language learning purposes only
© 2014 AZChords.com Contact us | Privacy policy | DMCA | Add/correct tabs | Request tabs | Top 50 tabs