>
 >
Save Us

Save Us Bass Tabs

Accept - Save Us chords, tabs, tablatures, lyrics

Guitar lessons | Add/correct | Request | Top 50 tabs Artists:  A B C D E F G H I J K L M N O P Q R S T U V W X Y Z 0-9

Save Us Bass Tabs – Accept

CD, Sheet music, Poster

Do you like Save Us? Share with your friends now
Bass Tabs
                                    Save Us                                     


                                                                          Accept
Bass



     E  E  E  E  E  E  H.              W                   Q     H.            
G||---------------------------------|-------------------|---------------------|
D||---------------------------------|-------------------|---------------------|
A||--3--4--5------------------------|-------------------|--5\-----------------|
D||-----------5--6--7--3------------|--L----------------|---------------------|


  W                   W                   E  E  E  E  E  E  Q     
-------------------|-------------------|-------------------------|
-------------------|-------------------|-------------------------|
-------------------|-------------------|--3--4--5----------------|
-------------------|-------------------|-----------5--6--7--3----|


  E  E  E  E  E  E  E  E     E  E  E  E  E  E  E  E   
--------------------------|--------------------------|
--------------------------|--------------------------|
--5--5--5--5--5--5--5--5--|--5--5--5--5--5--5--5--5--|
--------------------------|--------------------------|


  E  E  E  E  E  E  E  E     E  E  E  E  E  E  Q       E  E  E  E  E  E  E  E   
--------------------------|-------------------------|--------------------------|
--------------------------|-------------------------|--------------------------|
--5--5--5--5--5--5--5--5--|--3--4--5----------------|--5--5--5--5--5--5--5--5--|
--------------------------|-----------5--6--7--3----|--------------------------|


  E  E  E  E  E  E  E  E     E  E  E  E  E  E  E  E     E  E  E  E  E  E  Q     
--------------------------|--------------------------|-------------------------|
--------------------------|--------------------------|-------------------------|
--5--5--5--5--5--5--5--5--|--5--5--5--5--5--5--5--5--|--3--4--5----------------|
--------------------------|--------------------------|-----------5--6--7--3----|


  E  E  H        E   E     H.           E  E     E  E  H.            
------------------------|---------------------|---------------------|
------------------------|---------------------|---------------------|
------------------------|---------------------|---------------------|
--7-----------------10--|------------------5--|--7------------------|


  E  E  E  E  H           E  E  H        E   E     H.           E  E   
-----------------------|------------------------|---------------------|
-----------------------|------------------------|---------------------|
--3--4--5--6--L--------|------------------------|---------------------|
-----------------------|--7-----------------10--|------------------5--|


  E  E  H.              E  E  E  E  E  E  E  E     H.            E   E   
---------------------|--------------------------|-----------------------|
---------------------|--------------------------|-----------------------|
---------------------|--3--4--5--6--L--5--L--3--|-----------------------|
--7------------------|--------------------------|--7\---------------10--|


  H.           E  E     E  E  H.              E  E  E  E  H         
---------------------|---------------------|-----------------------|
---------------------|---------------------|-----------------------|
---------------------|---------------------|--3--4--5--6--L--------|
------------------5--|--7------------------|-----------------------|


  E  E  H        E   E     H.           E  E     E  E  H.            
------------------------|---------------------|---------------------|
------------------------|---------------------|---------------------|
------------------------|---------------------|---------------------|
--7-----------------10--|------------------5--|--7------------------|


  E  E  E  E  H           E  E  E  E  E  E  E  E     E  E  E  E  E  E  E  E   
-----------------------|--------------------------|--------------------------|
-----------------------|--------------------------|--------------------------|
--9--8--7--6--L--------|--5--5--5--5--5--5--5--5--|--5--5--5--5--5--5--5--5--|
-----------------------|--------------------------|--------------------------|


  E  E  E  E  E  E  E  E     E  E  E  E  E  E  Q       E  E  E  E  E  E  E  E   
--------------------------|-------------------------|--------------------------|
--------------------------|-------------------------|--------------------------|
--5--5--5--5--5--5--5--5--|--3--4--5----------------|--5--5--5--5--5--5--5--5--|
--------------------------|-----------5--6--7--3----|--------------------------|


  E  E  E  E  E  E  E  E     E  E  E  E  E  E  E  E     E  E  E  E  E  E  Q     
--------------------------|--------------------------|-------------------------|
--------------------------|--------------------------|-------------------------|
--5--5--5--5--5--5--5--5--|--5--5--5--5--5--5--5--5--|--3--4--5----------------|
--------------------------|--------------------------|-----------5--6--7--3----|


  E  E  H        E   E     H.           E  E     E  E  H.            
------------------------|---------------------|---------------------|
------------------------|---------------------|---------------------|
------------------------|---------------------|---------------------|
--7-----------------10--|------------------5--|--7------------------|


  E  E  E  E  H           E  E  H        E   E     H.           E  E   
-----------------------|------------------------|---------------------|
-----------------------|------------------------|---------------------|
--3--4--5--6--L--------|------------------------|---------------------|
-----------------------|--7-----------------10--|------------------5--|


  E  E  H.              E  E  E  E  E  E  E  E     H.            E   E   
---------------------|--------------------------|-----------------------|
---------------------|--------------------------|-----------------------|
---------------------|--3--4--5--6--L--5--L--3--|-----------------------|
--7------------------|--------------------------|--7\---------------10--|


  H.           E  E     E  E  H.              E  E  E  E  H         
---------------------|---------------------|-----------------------|
---------------------|---------------------|-----------------------|
---------------------|---------------------|--3--4--5--6--L--------|
------------------5--|--7------------------|-----------------------|


  E  E  H        E   E     H.           E  E     E  E  H.            
------------------------|---------------------|---------------------|
------------------------|---------------------|---------------------|
------------------------|---------------------|---------------------|
--7-----------------10--|------------------5--|--7------------------|


  E  E  E  E  E  E  Q        E  E  E  E  E  S S E  E   
--------------------------|---------------------------|
--------------------------|---------------------------|
--9--8--7--6--L-----6\----|--5--5--5--5--L--5-5-5--5--|
--------------------------|---------------------------|


  E  E  E  E  E  S S E  E     E  E  E  E  E  S S E  E   
---------------------------|---------------------------|
---------------------------|---------------------------|
--5--5--5--5--L--5-5-5--5--|--5--5--5--5--L--5-5-5--5--|
---------------------------|---------------------------|


  E  E  E  E  E  E  Q       E  E  E  E  E  S S E  E   
-------------------------|---------------------------|
-------------------------|---------------------------|
--3--4--5----------------|--5--5--5--5--L--5-5-5--5--|
-----------5--6--7--3----|---------------------------|


  E  E  E  E  E  S S E  E     E  E  E  E  E  S S E  E   
---------------------------|---------------------------|
---------------------------|---------------------------|
--5--5--5--5--L--5-5-5--5--|--5--5--5--5--L--5-5-5--5--|
---------------------------|---------------------------|


  E  E  E  E  E  E  E  E     E  E  Q    E  E  Q       E  E  Q    E  E  Q     
--------------------5--7--|------------------------|------------------------|
-----------5--7--8--------|------------------------|------------------------|
--5--7--8-----------------|--5--5-------8--8-------|--3--3-------3--3-------|
--------------------------|------------------------|------------------------|


  E  E  Q    E  E  Q       E  E  H.              E  E  Q    E  E  Q     
------------------------|---------------------|------------------------|
------------------------|---------------------|------------------------|
--1--1-------3--3-------|--5--5---------------|--5--5-------8--8-------|
------------------------|---------------------|------------------------|


  E  E  Q    E  E  Q       E  E  Q    E  E  Q       E  E  E   E  E  E  E  E   
------------------------|------------------------|-----------10-----9-----5--|
------------------------|------------------------|---------------------------|
--3--3-------3--3-------|--1--1-------3--3-------|--5--5--8------7-----3-----|
------------------------|------------------------|---------------------------|


  E  E  E  E  E   E  E   E     E  E  E  E  E  E  E  E   
-----7-----7-----10-----10--|-----5-----5-----5-----5--|
----------------------------|--------------------------|
--5-----5-----8------8------|--3-----3-----3-----3-----|
----------------------------|--------------------------|


  E  E  E  E  E  E  E  E     E  E  E  E  E  E  E  E   
-----3-----3-----5-----5--|-----7-----5-----7-----5--|
--------------------------|--------------------------|
--1-----1-----3-----3-----|--5-----3-----5-----3-----|
--------------------------|--------------------------|


  E  E  E  E  E   E  E   E     E  E  E  E  E  E  E  E   
-----7-----7-----10-----10--|-----5-----5-----5-----5--|
----------------------------|--------------------------|
--5-----5-----8------8------|--3-----3-----3-----3-----|
----------------------------|--------------------------|


  E  E  E  E  E  E  E  E     E  E  E  E  E  E  Q       E  E  E  E  E  E  E  E   
-----3-----3-----5-----5--|-------------------------|--------------------------|
--------------------------|-------------------------|--------------------------|
--1-----1-----3-----3-----|--3--4--5----------------|--5--5--5--5--5--5--5--5--|
--------------------------|-----------5--6--7--3----|--------------------------|


  E  E  E  E  E  E  E  E     E  E  E  E  E  E  E  E     E  E  E  E  E  E  Q     
--------------------------|--------------------------|-------------------------|
--------------------------|--------------------------|-------------------------|
--5--5--5--5--5--5--5--5--|--5--5--5--5--5--5--5--5--|--3--4--5----------------|
--------------------------|--------------------------|-----------5--6--7--3----|


  E  E  E  E  E  E  E  E     E  E  E  E  E  E  E  E   
--------------------------|--------------------------|
--------------------------|--------------------------|
--5--5--5--5--5--5--5--5--|--5--5--5--5--5--5--5--5--|
--------------------------|--------------------------|


  E  E  E  E  E  E  E  E     E  E  E  E  E  E  Q       E  E  E  E  E  E  E  E   
--------------------------|-------------------------|--------------------------|
--------------------------|-------------------------|--------------------------|
--5--5--5--5--5--5--5--5--|--3--4--5----------------|--5--5--5--5--5--5--5--5--|
--------------------------|-----------5--6--7--3----|--------------------------|


  E  E  E  E  E  E  E  E     E  E  E  E  E  E  E  E     E  E  E  E  E  E  Q     
--------------------------|--------------------------|-------------------------|
--------------------------|--------------------------|-------------------------|
--5--5--5--5--5--5--5--5--|--5--5--5--5--5--5--5--5--|--3--4--5----------------|
--------------------------|--------------------------|-----------5--6--7--3----|


  E  E  E  E  E  E  E  E     E  E  E  E  E  E  E  E   
--------------------------|--------------------------|
--------------------------|--------------------------|
--5--5--5--5--5--5--5--5--|--5--5--5--5--5--5--5--5--|
--------------------------|--------------------------|


  E  E  E  E  E  E  E  E     E  E  E  E  E  E  Q       E  E  H        E   E   
--------------------------|-------------------------|------------------------|
--------------------------|-------------------------|------------------------|
--5--5--5--5--5--5--5--5--|--3--4--5----------------|------------------------|
--------------------------|-----------5--6--7--3----|--7-----------------10--|


  H.           E  E     E  E  H.              E  E  E  E  H         
---------------------|---------------------|-----------------------|
---------------------|---------------------|-----------------------|
---------------------|---------------------|--3--4--5--6--L--------|
------------------5--|--7------------------|-----------------------|


  E  E  H        E   E     H.           E  E     E  E  H.            
------------------------|---------------------|---------------------|
------------------------|---------------------|---------------------|
------------------------|---------------------|---------------------|
--7-----------------10--|------------------5--|--7------------------|


  E  E  E  E  E  E  E  E     H.            E   E     H.           E  E   
--------------------------|-----------------------|---------------------|
--------------------------|-----------------------|---------------------|
--3--4--5--6--L--5--L--3--|-----------------------|---------------------|
--------------------------|--7\---------------10--|------------------5--|


  E  E  H.              E  E  E  E  H           E  E  H        E   E   
---------------------|-----------------------|------------------------|
---------------------|-----------------------|------------------------|
---------------------|--3--4--5--6--L--------|------------------------|
--7------------------|-----------------------|--7-----------------10--|


  H.           E  E     E  E  H.              E  E  E  E  H         
---------------------|---------------------|-----------------------|
---------------------|---------------------|-----------------------|
---------------------|---------------------|--9--8--7--6--L--------|
------------------5--|--7------------------|-----------------------|


  E  E  E  E  E  S S E  E     E  E  E  E  E  S S E  E   
---------------------------|---------------------------|
---------------------------|---------------------------|
--5--5--5--5--L--5-5-5--5--|--5--5--5--5--L--5-5-5--5--|
---------------------------|---------------------------|


  E  E  E  E  E  S S E  E     E  E  E  E  E  E  Q     
---------------------------|-------------------------|
---------------------------|-------------------------|
--5--5--5--5--L--5-5-5--5--|--3--4--5----------------|
---------------------------|-----------5--6--7--3----|


  E  E  E  E  E  S S E  E     E  E  E  E  E  S S E  E   
---------------------------|---------------------------|
---------------------------|---------------------------|
--5--5--5--5--L--5-5-5--5--|--5--5--5--5--L--5-5-5--5--|
---------------------------|---------------------------|


  E  E  E  E  E  S S E  E     E  E  E  E  E  E  E  E     E  E  Q    E  E  Q     
---------------------------|--------------------5--7--|------------------------|
---------------------------|-----------5--7--8--------|------------------------|
--5--5--5--5--L--5-5-5--5--|--5--7--8-----------------|--5--5-------8--8-------|
---------------------------|--------------------------|------------------------|


  E  E  Q    E  E  Q       E  E  Q    E  E  Q       E  E  H.            
------------------------|------------------------|---------------------|
------------------------|------------------------|---------------------|
--3--3-------3--3-------|--1--1-------3--3-------|--5--5---------------|
------------------------|------------------------|---------------------|


  E  E  Q    E  E  Q       E  E  Q    E  E  Q       E  E  Q    E  E  Q     
------------------------|------------------------|------------------------|
------------------------|------------------------|------------------------|
--5--5-------8--8-------|--3--3-------3--3-------|--1--1-------3--3-------|
------------------------|------------------------|------------------------|


  E  E  E   E  E  E  E  E     E  E  E  E  E   E  E   E   
-----------10-----9-----5--|-----7-----7-----10-----10--|
---------------------------|----------------------------|
--5--5--8------7-----3-----|--5-----5-----8------8------|
---------------------------|----------------------------|


  E  E  E  E  E  E  E  E     E  E  E  E  E  E  E  E   
-----5-----5-----5-----5--|-----3-----3-----5-----5--|
--------------------------|--------------------------|
--3-----3-----3-----3-----|--1-----1-----3-----3-----|
--------------------------|--------------------------|


  E  E  E  E  E  E  E  E     E  E  E  E  E   E  E   E   
-----7-----5-----7-----5--|-----7-----7-----10-----10--|
--------------------------|----------------------------|
--5-----3-----5-----3-----|--5-----5-----8------8------|
--------------------------|----------------------------|


  E  E  E  E  E  E  E  E     E  E  E  E  E  E  E  E   
-----5-----5-----5-----5--|-----3-----3-----5-----5--|
--------------------------|--------------------------|
--3-----3-----3-----3-----|--1-----1-----3-----3-----|
--------------------------|--------------------------|


  E  E  E   E  E  E  E  E     E  S S E  S S E  S S E  S S  
-----7-----10-----9-----5--|------------------------------|
---------------------------|------------------------------|
--5-----8------7-----3-----|--5--5-5-5--5-5-8--8-8-8--8-8-|
---------------------------|------------------------------|


  E  S S E  S S E  S S E  S S    E  S S E  S S E  S S E  S S  
------------------------------|------------------------------|
------------------------------|------------------------------|
--3--3-3-3--3-3-3--3-3-3--3-3-|--1--1-1-1--1-1-3--3-3-3--3-3-|
------------------------------|------------------------------|


  E  S S E  S S E  S S E  S S    E  S S E  S S E  S S E  S S  
------------------------------|------------------------------|
------------------------------|------------------------------|
--5--5-5-3--3-3-5--5-5-3--3-3-|--5--5-5-5--5-5-8--8-8-8--8-8-|
------------------------------|------------------------------|


  E  S S E  S S E  S S E  S S    E  S S E  S S E  S S E  S S  
------------------------------|------------------------------|
------------------------------|------------------------------|
--3--3-3-3--3-3-3--3-3-3--3-3-|--1--1-1-1--1-1-3--3-3-3--3-3-|
------------------------------|------------------------------|


  E  E  E  E  E  E  E  E     E  S S E  S S E  S S E  S S  
-----7-----5-----7-----5--|------------------------------|
--------------------------|------------------------------|
--5-----3-----5-----3-----|--5--5-5-5--5-5-8--8-8-8--8-8-|
--------------------------|------------------------------|


  E  S S E  S S E  S S E  S S    E  S S E  S S E  S S E  S S  
------------------------------|------------------------------|
------------------------------|------------------------------|
--3--3-3-3--3-3-3--3-3-3--3-3-|--1--1-1-1--1-1-3--3-3-3--3-3-|
------------------------------|------------------------------|


  E  E  E  E  E  E  E  E     E  S S E  S S E  S S E  S S  
-----7-----5-----7-----5--|------------------------------|
--------------------------|------------------------------|
--5-----3-----5-----3-----|--5--5-5-5--5-5-8--8-8-8--8-8-|
--------------------------|------------------------------|


  E  S S E  S S E  S S E  S S    E  S S E  S S E  S S E  S S  
------------------------------|------------------------------|
------------------------------|------------------------------|
--3--3-3-3--3-3-3--3-3-3--3-3-|--1--1-1-1--1-1-3--3-3-3--3-3-|
------------------------------|------------------------------|


  E  E  E  E  E  E  E  E    
-----7-----5-----7-----5--||
--------------------------||
--5-----3-----5-----3-----||
--------------------------||




Duration Legend
---------------
W - whole
H - half
Q - quarter
E - 8th
S - 16th
T - 32nd
X - 64th
. - note dotted
|-n-|  - n-tuplets


Tablature Legend
----------------
L - tied note
x - dead note
g - grace note
(n) - ghost note
> - accentuded note
NH - natural harmonic
AH - artificial harmonic
TH - tapped harmonic
SH - semi harmonic
PH - pitch harmonic
h - hammer on
p - pull off
b - bend
br - bendRelease
pb - preBend
pbr - preBendRelease
brb - bendReleaseBend
\n/ - tremolo bar dip
\n - tremolo bar dive
-/n - tremolo bar Release up
/n\ - tremolo bar inverted dip
/n - tremolo bar return
-\n - tremolo bar Release down
S - shift slide
s - legato slide
/ -  slide into from below or out of upwards
\ -  slide into from above or out of downwards
~ - vibrato
W - wide vibrato
tr - trill
TP - tremolo picking
T - tapping
S - slap
P - pop
< - fade in
^ - brush up
v - brush down





Comments


Popular Accept tabs & chords
Another Second To Be Bass Tabs
Midnight Highway Bass Tabs
Midnight Mover Bass Tabs
Primitive Bass Tabs
Amamos La Vida 1 Tabs
Balls To The Wall Intro Tabs
Fast As A Shark 3 Tabs
Princess Of The Dawn Tabs
Restless And Wild Tabs
Restless And Wild 1 Tabs


Song lyrics



↑ Back to top | Tablatures and chords are parodies/interpretations of the original songs. You may use it for private study, scholarship, research or language learning purposes only
© 2014 AZChords.com Contact us | Privacy policy | DMCA | Add/correct tabs | Request tabs | Top 50 tabs