>
 >
Neon Lights

Neon Lights Bass Tabs

Accept - Neon Lights chords, tabs, tablatures, lyrics

Guitar lessons | Add/correct | Request | Top 50 tabs Artists:  A B C D E F G H I J K L M N O P Q R S T U V W X Y Z 0-9

Neon Lights Bass Tabs – Accept

CD, Sheet music, Poster

Do you like Neon Lights? Share with your friends now
Bass Tabs
                                  Neon Nights                                   


                                                                          Accept
Bass



     W                   W                   W                 
G||-------------------|-------------------|-------------------|
D||-------------------|-------------------|-------------------|
A||-------------------|-------------------|-------------------|
E||-------------------|-------------------|-------------------|


  W                   W                   W                   W                 
-------------------|-------------------|-------------------|-------------------|
-------------------|-------------------|-------------------|-------------------|
-------------------|-------------------|-------------------|-------------------|
-------------------|-------------------|-------------------|-------------------|


  W                   W                   W                   W                 
-------------------|-------------------|-------------------|-------------------|
-------------------|-------------------|-------------------|-------------------|
-------------------|-------------------|-------------------|-------------------|
-------------------|-------------------|-------------------|-------------------|


  W                   W                   W                   W                 
-------------------|-------------------|-------------------|-------------------|
-------------------|-------------------|-------------------|-------------------|
-------------------|-------------------|-------------------|-------------------|
-------------------|-------------------|-------------------|-------------------|


  W                   S W                   W                 
-------------------|---------------------|-------------------|
-------------------|---------------------|-------------------|
-------------------|---------------------|-------------------|
-------------------|---------------------|-------------------|


  W                   W                   W                 
-------------------|-------------------|-------------------|
-------------------|-------------------|-------------------|
-------------------|-------------------|-------------------|
-------------------|-------------------|-------------------|


  W                Q       W                   W                 
------------------------|-------------------|-------------------|
------------------------|-------------------|-------------------|
------------------------|-------------------|-------------------|
------------------------|-------------------|-------------------|


  W                   W                   W                 
-------------------|-------------------|-------------------|
-------------------|-------------------|-------------------|
-------------------|-------------------|-------------------|
-------------------|-------------------|-------------------|


  S S S S S S S S S S S S S S S S    S S S S S S S S S S S S S S S S  
----------------------------------|----------------------------------|
----------------------------------|----------------------------------|
--2---2-2-2---2-2-2---2-2-2---2-2-|--2---2-2-2---2-2-2---2-2-2---2-2-|
----------------------------------|----------------------------------|


  H        Q    E  E     S S S S S S S S S S S S S S S S  
----------------------|----------------------------------|
----------------------|----------------------------------|
-----------5----4--0--|--2---2-2-2---2-2-2---2-2-2---2-2-|
--5-------------------|----------------------------------|


  S S S S S S S S S S S S S S S S    S S S S S S S S S S S S S S S S  
----------------------------------|----------------------------------|
----------------------------------|----------------------------------|
--2---2-2-2---2-2-2---2-2-2---2-2-|--2---2-2-2---2-2-2---2-2-2---2-2-|
----------------------------------|----------------------------------|


  H        Q    E  E     W                   E  E  Q    E  E  Q     
----------------------|-------------------|------------------------|
----------------------|-------------------|------------------------|
-----------5----4--0--|-------------------|------------------------|
--5-------------------|--3----------------|--0--0-------0--0-------|


  E  E  Q    E  E  Q       E  E  Q    E  E  Q       E  E  Q    E  E  E  S S  
------------------------|------------------------|--------------------------|
------------------------|------------------------|--------------------------|
------------------------|------------------------|--------------------------|
--0--0-------0--0-------|--0--0-------0--0-------|--0--0-------0--0--0--2-3-|


  E  E  Q    E  E  Q       E  E  Q    E  E  Q       E  E  Q    E  E  Q     
------------------------|------------------------|------------------------|
------------------------|------------------------|------------------------|
------------------------|------------------------|------------------------|
--0--0-------0--0-------|--0--0-------0--0-------|--0--0-------0--0-------|


  E  E  Q    S S S S S S S S    E  E  E  E  E  E  Q     
-----------------------------|-------------------------|
-----------------------------|-------------------------|
-----------------------------|--3--3--3--0--5--5--5----|
--0--0-------0-0-2-3-5-3-2-0-|-------------------------|


  E.  S S S H        E     E  E  Q    E  E  Q       E  E  Q    E  E  Q     
------------------------|------------------------|------------------------|
------------------------|------------------------|------------------------|
------------3--------L--|------------------------|------------------------|
--0---0-3-0-------------|--0--0-------0--0-------|--0--0-------0--0-------|


  E  E  Q    E  E  Q       E  E  Q    E  E  E  S S    E  E  Q    E  E  Q     
------------------------|--------------------------|------------------------|
------------------------|--------------------------|------------------------|
------------------------|--------------------------|------------------------|
--0--0-------0--0-------|--0--0-------0--0--0--2-3-|--0--0-------0--0-------|


  E  E  Q    E  E  Q       E  E  Q    E  E  Q       E  E  Q    S S S S S S S S  
------------------------|------------------------|-----------------------------|
------------------------|------------------------|-----------------------------|
------------------------|------------------------|-----------------------------|
--0--0-------0--0-------|--0--0-------0--0-------|--0--0-------0-0-2-3-5-3-2-0-|


  E  E  E  E  E  E  Q       E.  S S S H        E     H        E  E  E  E   
-------------------------|------------------------|-----------------------|
-------------------------|------------------------|-----------------------|
--3--3--3--0--5--5--5----|------------3--------2--|--0--------------------|
-------------------------|--0---0-3-0-------------|-----------3--3--3--3--|


  H        H           E  E  E  S H        S    H        Q    Q     
--------------------|------------------------|---------------------|
--------------------|------------------------|---------------------|
--------------------|--------7----5--------L-|--3-------------5----|
--7-----------------|--0--0-----0------------|-----------3---------|


  E  E  E  S H        S    H        Q    Q       E  E  E  S H        S  
------------------------|---------------------|------------------------|
------------------------|---------------------|------------------------|
--------7----5--------L-|--3-------------5----|--------7----5--------L-|
--0--0-----0------------|-----------3---------|--0--0-----0------------|


  H        Q    Q       E  E  E  S H        S    W                 
---------------------|------------------------|-------------------|
---------------------|------------------------|-------------------|
--3-------------5----|--------7----5--------L-|--3----------------|
-----------3---------|--0--0-----0------------|-------------------|


  E  E  Q    E  E  Q       E  E  Q    E  E  Q       E  E  Q    E  E  Q     
------------------------|------------------------|------------------------|
------------------------|------------------------|------------------------|
------------------------|------------------------|------------------------|
--0--0-------0--0-------|--0--0-------0--0-------|--0--0-------0--0-------|


  E  E  E  S S E  E  Q       E  E  Q    E  E  Q       E  E  Q    E  E  Q     
--------------------------|------------------------|------------------------|
--------------------------|------------------------|------------------------|
-----------7--------------|------------------------|------------------------|
--0--0---------0--0-------|--0--0-------0--0-------|--0--0-------0--0-------|


  E  E  Q    E  E  Q       E  E  Q    E  E  E  S S    E  E  Q    E  E  Q     
------------------------|--------------------------|------------------------|
------------------------|--------------------------|------------------------|
------------------------|--------------------------|------------------------|
--0--0-------0--0-------|--0--0-------0--0--0--2-3-|--0--0-------0--0-------|


  E  E  Q    E  E  Q       E  E  Q    E  E  Q       E  E  Q    S S S S S S S S  
------------------------|------------------------|-----------------------------|
------------------------|------------------------|-----------------------------|
------------------------|------------------------|-----------------------------|
--0--0-------0--0-------|--0--0-------0--0-------|--0--0-------0-0-2-3-5-3-2-0-|


  Q    Q    Q    Q       E.  S S S H        E     Q    Q    E  E  E  E   
----------------------|------------------------|------------------------|
----------------------|------------------------|------------------------|
--3----3----5----5----|------------3--------2--|--0----0----------------|
----------------------|--0---0-3-0-------------|------------3--3--3--3--|


  H        H           E  E  E  S H        S    H        Q    Q     
--------------------|------------------------|---------------------|
--------------------|------------------------|---------------------|
--------------------|--------7----5--------L-|--3-------------5----|
--7-----------------|--0--0-----0------------|-----------3---------|


  E  E  E  S H        S    H        Q    Q       E  E  E  S H        S  
------------------------|---------------------|------------------------|
------------------------|---------------------|------------------------|
--------7----5--------L-|--3-------------5----|--------7----5--------L-|
--0--0-----0------------|-----------3---------|--0--0-----0------------|


  H        Q    Q       E  E  E  S H        S    H        E  E  E  E   
---------------------|------------------------|-----------------------|
---------------------|------------------------|-----------------------|
--3-------------5----|--------7----5--------L-|--3--------2--2--2--2--|
-----------3---------|--0--0-----0------------|-----------------------|


  E  E  H.              W                   W                   H         
---------------------|-------------------|-------------------|-----------|
---------------------|-------------------|-------------------|-----------|
--2------------------|-------------------|-------------------|-----------|
---------------------|-------------------|-------------------|-----------|


  E  E  E  E  E  E  E  E     E  E  E  E  E  E  E  E     H.           S S E   
--------------------------|--------------------------|----------------------|
--------------------------|--------------------------|----------------------|
--2--2-----2-----2-----2--|--0--2-----2-----2-----2--|--0------------2-0-0--|
--------------------------|--------------------------|----------------------|


  E  E  E  E  E  E  E  E     E  E  E  E  E  E  E  E   
--------------------------|--------------------------|
--------------------------|--------------------------|
--0--2-----2-----2-----2--|--0--2-----2-----2-----2--|
--------------------------|--------------------------|


  E  E  E  E  E  E  E  E     Q.     E  S S S S S S S S  
--------------------------|----------------------------|
--------------------------|----------------------------|
--0--2-----2-----2-----2--|--0------L--0-0---0---0-0---|
--------------------------|----------------------------|


  E  E  E  E  E  E  E  E     E  E  E  E  E  E  E  E   
--------------------------|--------------------------|
--------------------------|--------------------------|
--0--2-----2-----2-----2--|--0--2-----2-----2-----2--|
--------------------------|--------------------------|


  E  E  E  E  E  E  E  E     H.           S S E     E  E  E  E  E  E  E  E   
--------------------------|----------------------|--------------------------|
--------------------------|----------------------|--------------------------|
--0--2-----2-----2-----2--|--0------------0-0-0--|--0--2-----2-----2-----2--|
--------------------------|----------------------|--------------------------|


  E  E  E  E  E  E  E  E     E  E  E  E  E  E  E  E     H.           S S E   
--------------------------|--------------------------|----------------------|
--------------------------|--------------------------|----------------------|
--0--2-----2-----2-----2--|--0--2-----2-----2-----2--|--0------------2-0-0--|
--------------------------|--------------------------|----------------------|


  E  E  E  E  E  E  E  E     E  Q.     E  Q.        E  Q.     H         
--------------------------|----------------------|---------------------|
--------------------------|----------------------|---------------------|
--0--2-----2-----2-----2--|--2-------------------|--0------------------|
--------------------------|------------3---------|------------2--------|


  E  Q.     E  Q.        E  Q.     H           W                 
----------------------|---------------------|-------------------|
----------------------|---------------------|-------------------|
--2-------------------|--0------------------|-------------------|
------------3---------|------------2--------|--L----------------|


  W                   W                   S S S S S S S S S S S S S S S S  
-------------------|-------------------|----------------------------------|
-------------------|-------------------|----------------------------------|
-------------------|-------------------|--2---2-2-2---2-2-2---2-2-2---2-2-|
--L----------------|--L----------------|----------------------------------|


  S S S S S S S S S S S S S S S S    H        Q    E  E     H        H         
----------------------------------|----------------------|--------------------|
----------------------------------|----------------------|--------------------|
--2---2-2-2---2-2-2---2-2-2---2-2-|-----------5----4--0--|--------------------|
----------------------------------|--5-------------------|--3-----------------|


  E  E  E  S H        S    H        Q    Q       E  E  E  S H        S  
------------------------|---------------------|------------------------|
------------------------|---------------------|------------------------|
--------7----5--------L-|--3-------------5----|--------7----5--------L-|
--0--0-----0------------|-----------3---------|--0--0-----0------------|


  H        Q    Q       E  E  E  S E  E.  S S E   
---------------------|---------------------------|
---------------------|---------------------------|
--3-------------5----|-----7--7----5--5---5-5-5--|
-----------3---------|--0------------------------|


  Q    S S S S S S S S S S E     E  E  E  S E  E.  S S E   
------------------------------|---------------------------|
------------------------------|---------------------------|
--3----3-3-------------5-5-5--|-----7--7----5--5---5-5-5--|
-----------0-3-L-3-3-3--------|--0------------------------|


  Q    S S S S S S S S S S E     E  E  E  S E  E.  S S E   
------------------------------|---------------------------|
------------------------------|---------------------------|
--3----3-3-------------5-5-5--|-----7--7----5--5---5-5-5--|
-----------0-3-L-3-3-3--------|--0------------------------|


  Q    S S S S S S S S S S E     E  E  E  S E  E.  S S E   
------------------------------|---------------------------|
------------------------------|---------------------------|
--3----3-3-------------5-5-5--|-----7--7----5--5---5-5-5--|
-----------0-3-L-3-3-3--------|--0------------------------|


  Q    S S S S S S S S S S E     E  E  E  S E  E.  S S E   
------------------------------|---------------------------|
------------------------------|---------------------------|
--3----3-3-------------5-5-5--|-----7--7----5--5---5-5-5--|
-----------0-3-L-3-3-3--------|--0------------------------|


  Q    S S S S S S S S S S E     E  E  E  S E  E.  S S E   
------------------------------|---------------------------|
------------------------------|---------------------------|
--3----3-3-------------5-5-5--|-----7--7----5--5---5-5-5--|
-----------0-3-L-3-3-3--------|--0------------------------|


  Q    S S S S S S S S S S E     E  E  E  S E  E.  S S E   
------------------------------|---------------------------|
------------------------------|---------------------------|
--3----3-3-------------5-5-5--|-----7--7----5--5---5-5-5--|
-----------0-3-L-3-3-3--------|--0------------------------|


  Q    S S S S S S S S S S E     E  E  E  S E  E.  S S E   
------------------------------|---------------------------|
------------------------------|---------------------------|
--3----3-3-------------5-5-5--|-----7--7----5--5---5-5-5--|
-----------0-3-L-3-3-3--------|--0------------------------|


  Q    S S S S S S S S S S E    
------------------------------||
------------------------------||
--3----3-3-------------5-5-5--||
-----------0-3-L-3-3-3--------||




Duration Legend
---------------
W - whole
H - half
Q - quarter
E - 8th
S - 16th
T - 32nd
X - 64th
. - note dotted
|-n-|  - n-tuplets


Tablature Legend
----------------
L - tied note
x - dead note
g - grace note
(n) - ghost note
> - accentuded note
NH - natural harmonic
AH - artificial harmonic
TH - tapped harmonic
SH - semi harmonic
PH - pitch harmonic
h - hammer on
p - pull off
b - bend
br - bendRelease
pb - preBend
pbr - preBendRelease
brb - bendReleaseBend
\n/ - tremolo bar dip
\n - tremolo bar dive
-/n - tremolo bar Release up
/n\ - tremolo bar inverted dip
/n - tremolo bar return
-\n - tremolo bar Release down
S - shift slide
s - legato slide
/ -  slide into from below or out of upwards
\ -  slide into from above or out of downwards
~ - vibrato
W - wide vibrato
tr - trill
TP - tremolo picking
T - tapping
S - slap
P - pop
< - fade in
^ - brush up
v - brush down





Comments


Popular Accept tabs & chords
Ahead Of The Pack Bass Tabs
Another Second To Be Bass Tabs
Balls To The Wall Bass Tabs
I Wanna Be No Hero Bass Tabs
Living For Tonight Bass Tabs
Seawinds Chords
Head Over Heels 1 Tabs
Head Over Heels 2 Tabs
Living Fot Tonight Tabs
Screaming For A Love Bite Tabs


Song lyrics



↑ Back to top | Tablatures and chords are parodies/interpretations of the original songs. You may use it for private study, scholarship, research or language learning purposes only
© 2014 AZChords.com Contact us | Privacy policy | DMCA | Add/correct tabs | Request tabs | Top 50 tabs