» » »

Accept, Monsterman Bass tabs (ver.1)

Artists:  A B C D E F G H I J K L M N O P Q R S T U V W X Y Z # 

Monsterman Bass tabs (ver.1)

Accept Tabs
 Rating:
4/5 (4 votes)
Monsterman lessons Tabs too difficult? Try these video lessons and learn fast
1
                                                  Monsterman                                    


                                                                          Accept
Bass



     W                   H        E  E  E  E     E  E  Q    E  E  E  E   
G||-------------------|-----------------------|-------------------------|
D||-------------------|-----------5-----------|-------------------------|
A||-------------------|-----------------3-----|--5-------------3--5-----|
E||-------------------|-----------------------|-------------------------|


  H         E  E   E   E     E  E  E  E  E  E  E  E   
--------------------------|--------------------------|
--------------------------|--------------------------|
---------------8--10p--8--|--5--5--5--5--5--5--5--5--|
-----------10-------------|--------------------------|


  E  E  E  E  E  E  E  E     E  E  E  E  E  E  E  E   
--------------------------|--------------------------|
--------------------------|--------------------------|
--5--5--5--5--5--5--5--5--|--5--5--5--5--5--5--5--5--|
--------------------------|--------------------------|


  E  E  E  E  E  E  E  E     E  E  E  E  E  E  E  E   
--------------------------|--------------------------|
--------------------------|--------------------------|
--5--5--5--5--5--5--5--5--|--5--5--5--5--5--5--5--5--|
--------------------------|--------------------------|


  E  E  E  E  E  E  E  E     E  E  E  E  E  E  E  E   
--------------------------|--------------------------|
--------------------------|--------------------------|
--5--5--5--5--5--5--5--5--|--5--5--5--5--5--5--5--5--|
--------------------------|--------------------------|


  E  E  E  E  E  E  E  E     E  E  E  E  E  E  E  E   
--------------------------|--------------------------|
--------------------------|--------------------------|
--5--5--5--5--5--5--5--5--|--5--5--5--5--5--5--5--5--|
--------------------------|--------------------------|


  E  E  E  E  E  E  E  E     E  E  E  E  E  E  E  E   
--------------------------|--------------------------|
--------------------------|--------------------------|
--5--5--5--5--5--5--5--5--|--5--5--5--5--5--5--5--5--|
--------------------------|--------------------------|


  E  E  E  E  E  E  E  E     E  E  E  E  E  E  E  E   
--------------------------|--------------------------|
--------------------------|--------------------------|
--5--5--5--5--5--5--5--5--|--5--5--5--5--5--5--5--5--|
--------------------------|--------------------------|


  E  E  E  E  E  E  E  E     E  E  E  E  E  E  E  E   
--------------------------|--------------------------|
--------------------------|--------------------------|
--5--5--5--5--5--5--5--5--|--5--5--5--5--5--5--5--5--|
--------------------------|--------------------------|


  E  E  E  E  E  E  E  E     E  E  E  E  E  E  E  E   
--------------------------|--------------------------|
--------------------------|--------------------------|
--5--5--5--5--5--5--5--5--|--5--5--5--5--5--5--5--5--|
--------------------------|--------------------------|


  E  E  E  E  E  E  E  E     E  E  E  E  E  E  E  E   
--------------------------|--------------------------|
--------------------------|--------------------------|
--5--5--5--5--5--5--5--5--|--5--5--5--5--5--5--5--5--|
--------------------------|--------------------------|


  E  E  E  E  E  E  E  E     E  E  E  E  E  E  E  E   
--------------------------|--------------------------|
--------------------------|--------------------------|
--5--5--5--5--5--5--5--5--|--1--1--1--1--1--1--1--1--|
--------------------------|--------------------------|


  E  E  E  E  E  E  E  E     E  E  E  E  E  E  E  E   
--------------------------|--------------------------|
--------------------------|--------------------------|
--1--1--1--1--1--1--1--1--|--0--0--0--0--0--0--0--0--|
--------------------------|--------------------------|


  E  E  E  E  E   E  E   E     E  E  E  E  E  E  E  E   
----------------------------|--------------------------|
----------------------------|--------------------------|
--0--0--0--0--3p--0--3p--0--|--1--1--1--1--1--1--1--1--|
----------------------------|--------------------------|


  E  E  E  E  E  E  E  E     E  E  E  E  E  E  E  E   
--------------------------|--------------------------|
--------------------------|--------------------------|
--1--1--1--1--1--1--1--1--|--0--0--0--0--0--0--0--0--|
--------------------------|--------------------------|


  E   E  E  E  E  E  Q       E  E  E  E  E  E  E  E   
--------------------------|--------------------------|
--------------------------|--------------------------|
--3/--5--5--5--5----------|--5--5--5--5--5--5--5--5--|
--------------------------|--------------------------|


  E  E  E  E  E  E  E  E     E  E  E  E  E  E  E  E   
--------------------------|--------------------------|
--------------------------|--------------------------|
--5--5--5--5--5--5--5--5--|--1--1--1--1--1--1--1--1--|
--------------------------|--------------------------|


  E  E  E  E  E  E  E  E     E  E  E  E  E  E  E  E   
--------------------------|--------------------------|
--------------------------|--------------------------|
--1--1--1--1--1--1--1--1--|--5--5--5--5--5--5--5--5--|
--------------------------|--------------------------|


  E  E  E  E  E  E  E  E     E  E  E  E  E  E  E  E   
--------------------------|--------------------------|
--------------------------|--------------------------|
--5--5--5--5--5--5--5--5--|--1--1--1--1--1--1--1--1--|
--------------------------|--------------------------|


  E  E  E  E  E  E  E  E     E  E  E  E  E  E  E  E   
--------------------------|--------------------------|
--------------------5-----|--------------------------|
--1--1--1--1--5-----------|--5--5--5--5--5--5--5--5--|
--------------------------|--------------------------|


  E  E  E  E  E  E  E  E     E  E  E  E  E  E  E  E   
--------------------------|--------------------------|
--------------------------|--------------------------|
--5--5--5--5--5--5--5--5--|--5--5--5--5--5--5--5--5--|
--------------------------|--------------------------|


  E  E  E  E  E  E  E  E     E  E  E  E  E  E  E  E   
--------------------------|--------------------------|
--------------------------|--------------------------|
--5--5--5--5--5--5--5--5--|--5--5--5--5--5--5--5--5--|
--------------------------|--------------------------|


  E  E  E  E  E  E  E  E     E  E  E  E  E  E  E  E   
--------------------------|--------------------------|
--------------------------|--------------------------|
--5--5--5--5--5--5--5--5--|--5--5--5--5--5--5--5--5--|
--------------------------|--------------------------|


  E  E  E  E  E  E  E  E     E  E  E  E  E  E  E  E   
--------------------------|--------------------------|
--------------3--2--------|--------------------------|
--5--5--5--5--------5--3--|--1--1--1--1--1--1--1--1--|
--------------------------|--------------------------|


  E  E  E  E  E  E  E  E     E  E  E  E  E  E  E  E   
--------------------------|--------------------------|
--------------------------|--------------------------|
--1--1--1--1--1--1--1--1--|--0--0--0--0--0--0--0--0--|
--------------------------|--------------------------|


  E   E  E  E  E  E  Q       E  E  E  E  E  E  E  E   
--------------------------|--------------------------|
--------------------------|--------------------------|
--3/--5--5--5--5----------|--5--5--5--5--5--5--5--5--|
--------------------------|--------------------------|


  E  E  E  E  E  E  E  E     E  E  E  E  E  E  E  E   
--------------------------|--------------------------|
--------------------------|--------------------------|
--5--5--5--5--5--5--5--5--|--1--1--1--1--1--1--1--1--|
--------------------------|--------------------------|


  E  E  E  E  E  E  E  E     E  E  E  E  E  E  E  E   
--------------------------|--------------------------|
--------------------------|--------------------------|
--1--1--1--1--1--1--1--1--|--5--5--5--5--5--5--5--5--|
--------------------------|--------------------------|


  E  E  E  E  E  E  E  E     E  E  E  E  E  E  E  E   
--------------------------|--------------------------|
--------------------------|--------------------------|
--5--5--5--5--5--5--5--5--|--1--1--1--1--1--1--1--1--|
--------------------------|--------------------------|


  E  E  E  E  E  E  E  E     E  H        E     E  H        E  E  E   
--------------------------|-----------------|-----------------------|
--------------------5-----|-----------------|-----------------------|
--1--1--1--1--5-----------|--5-----------3--|--5--------------3-----|
--------------------------|-----------------|-----------------------|


  E  E  E  H        E     E  E  H           H.            
-----------------------|-----------------|---------------|
-----------------------|-----------------|---------------|
--5-----3-----------3--|--5--------------|---------------|
-----------------------|-----------------|---------------|


  E  E  E  E  E  E  E  E     E  E  E  E  E  E  E  E   
--------------------------|--------------------------|
--------------------------|--------------------------|
--5--5--5--5--5--5--5--5--|--5--5--5--5--5--5--5--5--|
--------------------------|--------------------------|


  E  E  E  E  E  E  E  E     E  E  E  E  E   E  E  E   
--------------------------|---------------------------|
--------------------------|---------------------------|
--1--1--1--1--1--1--1--1--|--1--1--1--1--1/--3--3--3--|
--------------------------|---------------------------|


  E  E  E  E  E  E  E  E     E  E  E  E  E  E  E  E   
--------------------------|--------------------------|
--------------------------|--------------------------|
--5--5--5--5--5--5--5--5--|--5--5--5--5--5--5--5--5--|
--------------------------|--------------------------|


  E  E  E  E  E  E  E  E     E  E  E  E  E   E  E  E   
--------------------------|---------------------------|
--------------------------|---------------------------|
--1--1--1--1--1--1--1--1--|--1--1--1--1--1/--3--3--3--|
--------------------------|---------------------------|


  E  E  E  E  E  E  E  E     E  E  E  E  E  E  E  E   
--------------------------|--------------------------|
--------------------------|--------------------------|
--5--5--5--5--5--5--5--5--|--5--5--5--5--5--5--5--5--|
--------------------------|--------------------------|


  E  E  E  E  E  E  E  E     E  E  E  E  E   E  E  E   
--------------------------|---------------------------|
--------------------------|---------------------------|
--1--1--1--1--1--1--1--1--|--1--1--1--1--1/--3--3--3--|
--------------------------|---------------------------|


  E  E  E  E  E  E  E  E     E  E  E  E  E  E  E  E   
--------------------------|--------------------------|
--------------------------|--------------------------|
--5--5--5--5--5--5--5--5--|--5--5--5--5--5--5--5--5--|
--------------------------|--------------------------|


  E  E  E  E  E  E  E  E     E  E  E  E  E  E  E  E     W                 
--------------------------|--------------------------|-------------------|
--------------------------|--------------------------|-------------------|
--1--1--1--1--1--1--1--1--|--1--1--1--1--1--1--1--1--|-------------------|
--------------------------|--------------------------|-------------------|


  W                   W                   W                   W                 
-------------------|-------------------|-------------------|-------------------|
-------------------|-------------------|-------------------|-------------------|
-------------------|-------------------|-------------------|-------------------|
-------------------|-------------------|-------------------|-------------------|


  W                    E      E   E   E   E   E   E   E   
-------------------|-------------------------------------|
-------------------|------10g12--10------12--12--10--10--|
-------------------|-----------------12------------------|
-------------------|--10---------------------------------|


   E   E   E   E   E   E  E  E     E  E  E  E  E  E  E  E   
--------------------------------|--------------------------|
--------------------------------|--------------------------|
--12--12--11--11--10--10--8--8--|--5--5--5--5--5--5--5--5--|
--------------------------------|--------------------------|


  E  E  E  E  E  E  E  E     E  E  E  E  E  E  E  E   
--------------------------|--------------------------|
--------------------------|--------------------------|
--5--5--5--5--5--5--5--5--|--1--1--1--1--1--1--1--1--|
--------------------------|--------------------------|


  E  E  E  E  E  E  E  E     E  E  E  E  E  E  E  E   
--------------------------|--------------------------|
--------------------------|--------------------------|
--1--1--1--1--1--1--1--1--|--5--5--5--5--5--5--5--5--|
--------------------------|--------------------------|


  E  E  E  E  E  E  E  E     E  E  E  E  E  E  E  E   
--------------------------|--------------------------|
--------------------------|--------------------------|
--5--5--5--5--5--5--5--5--|--1--1--1--1--1--1--1--1--|
--------------------------|--------------------------|


  E  E  E  E  E  E  E  E     E  E  E  E  E  E  E  E   
--------------------------|--------------------------|
--------------------------|--------------------------|
--1--1--1--1--1--1--1--1--|--5--5--5--5--5--5--5--5--|
--------------------------|--------------------------|


  E  E  E  E  E  E  E  E     E  E  E  E  E  E  E  E   
--------------------------|--------------------------|
--------------------------|--------------------------|
--5--5--5--5--5--5--5--5--|--1--1--1--1--1--1--1--1--|
--------------------------|--------------------------|


  E  E  E  E  E  E  E  E     E  E  E  E  E  E  E  E   
--------------------------|--------------------------|
--------------------------|--------------------------|
--1--1--1--1--1--1--1--1--|--5--5--5--5--5--5--5--5--|
--------------------------|--------------------------|


  E  E  E  E  E  E  E  E     E  E  E  E  E  E  E  E   
--------------------------|--------------------------|
--------------------------|--------------------------|
--5--5--5--5--5--5--5--5--|--1--1--1--1--1--1--1--1--|
--------------------------|--------------------------|


  E  E  E  E  E  E  E  E     E  E  E  E  E  E  E  E   
--------------------------|--------------------------|
--------------------------|--------------------------|
--1--1--1--1--1--1--1--1--|--5--5--5--5--5--5--5--5--|
--------------------------|--------------------------|


  E  E  E  E  E  E  E  E     E  E  E  E  E  E  E  E   
--------------------------|--------------------------|
--------------------------|--------------------------|
--5--5--5--5--5--5--5--5--|--1--1--1--1--1--1--1--1--|
--------------------------|--------------------------|


  E  E  E  E  E  E  E  E     E  E  E  E  E  E  E  E   
--------------------------|--------------------------|
--------------------------|--------------------------|
--1--1--1--1--1--1--1--1--|--5--5--5--5--5--5--5--5--|
--------------------------|--------------------------|


  E  E  E  E  E  E  E  E     E  E  E  E  E  E  E  E   
--------------------------|--------------------------|
--------------------------|--------------------------|
--5--5--5--5--5--5--5--5--|--1--1--1--1--1--1--1--1--|
--------------------------|--------------------------|


  E  E  E  E  E  E  E  E     E  E  E  E  E  E  E  E   
--------------------------|--------------------------|
--------------------------|--------------------------|
--1--1--1--1--1--1--1--1--|--5--5--5--5--5--5--5--5--|
--------------------------|--------------------------|


  E  E  E  E  E  E  E  E     E  E  E  E  E  E  E  E   
--------------------------|--------------------------|
--------------------------|--------------------------|
--5--5--5--5--5--5--5--5--|--1--1--1--1--1--1--1--1--|
--------------------------|--------------------------|


  E  E  E  E  E  E  E  E     E  E  E  E  E  E  E  E   
--------------------------|--------------------------|
--------------------------|--------------------------|
--1--1--1--1--1--1--1--1--|--5--5--5--5--5--5--5--5--|
--------------------------|--------------------------|


  E  E  E  E  E  E  E  E     E  E  E  E  E  E  E  E   
--------------------------|--------------------------|
--------------------------|--------------------------|
--5--5--5--5--5--5--5--5--|--1--1--1--1--1--1--1--1--|
--------------------------|--------------------------|


  E  E  E  E  E  E  E  E    
--------------------------||
--------------------------||
--1--1--1--1--1--1--1--1--||
--------------------------||




Duration Legend
---------------
W - whole
H - half
Q - quarter
E - 8th
S - 16th
T - 32nd
X - 64th
. - note dotted
|-n-|  - n-tuplets


Tablature Legend
----------------
L - tied note
x - dead note
g - grace note
(n) - ghost note
> - accentuded note
NH - natural harmonic
AH - artificial harmonic
TH - tapped harmonic
SH - semi harmonic
PH - pitch harmonic
h - hammer on
p - pull off
b - bend
br - bendRelease
pb - preBend
pbr - preBendRelease
brb - bendReleaseBend
\n/ - tremolo bar dip
\n - tremolo bar dive
-/n - tremolo bar Release up
/n\ - tremolo bar inverted dip
/n - tremolo bar return
-\n - tremolo bar Release down
S - shift slide
s - legato slide
/ -  slide into from below or out of upwards
\ -  slide into from above or out of downwards
~ - vibrato
W - wide vibrato
tr - trill
TP - tremolo picking
T - tapping
S - slap
P - pop
< - fade in
^ - brush up
v - brush down
            
Submit corrections

comments powered by Disqus
↑ Back to top | Accept Bass for Monsterman. Lyrics for acoustic guitar and electric guitar. 1 Tablatures and chords are parodies/interpretations of the original songs. You may use it for private study, scholarship, research or language learning purposes only