>
 >
Love Sensation

Love Sensation Bass Tabs

Accept - Love Sensation chords, tabs, tablatures, lyrics

Guitar lessons | Add/correct | Request | Top 50 tabs Artists:  A B C D E F G H I J K L M N O P Q R S T U V W X Y Z 0-9

Love Sensation Bass Tabs – Accept

CD, Sheet music, Poster

Do you like Love Sensation? Share with your friends now
Bass Tabs
                                Love Sensation                                  


                                                                          Accept
Bass



     W                   W                   W                 
G||-------------------|-------------------|-------------------|
D||-------------------|-------------------|-------------------|
A||-------------------|-------------------|-------------------|
D||-------------------|-------------------|-------------------|


  H        E  S S Q        E  E  H.              W                 
------------------------|---------------------|-------------------|
------------------------|---------------------|-------------------|
------------------------|---------------------|-------------------|
--------------0-0-8\----|--L------------------|-------------------|


  W                   W                   E  E  E  E  E  E  E  E   
-------------------|-------------------|--------------------------|
-------------------|-------------------|--------------------------|
-------------------|-------------------|--------------------------|
-------------------|-------------------|--3--3--3--3--3--3--3--3--|


  E  E  E  E  E  E  E  E     E  E  E  E  E  E  E  E   
--------------------------|--------------------------|
--------------------------|--------------------------|
--------------------------|--------------------------|
--3--3--3--3--3--3--3--3--|--3--3--3--3--3--3--3--3--|


  E  E  E  E  E  E  E  E     E  E  E  E  E  E  E  E   
--------------------------|--------------------------|
--------------------------|--------------------------|
--------------------------|--------------------------|
--3--3--3--3--3--3--3--1--|--3--3--3--3--3--3--3--3--|


  E  E  E  E  E  E  E  E     E  E  E  E  E  E  E  E     W                 
--------------------------|--------------------------|-------------------|
--------------------------|--------------------------|-------------------|
--------------------------|-----------------------1--|--L----------------|
--3--3--3--3--3--3--3--3--|--3--3--3--3--3--3--3-----|-------------------|


  E  E  E  E  E  E  E  E     E  E  E  E  E  E  E  E   
--------------------------|--------------------------|
--------------------------|--------------------------|
--------------------------|--------------------------|
--3--3--3--3--3--3--3--3--|--3--3--3--3--3--3--3--3--|


  E  E  E  E  E  E  E  E     E  E  E  E  E  E  E  E   
--------------------------|--------------------------|
--------------------------|--------------------------|
--------------------------|--------------------------|
--3--3--3--3--3--3--3--3--|--3--3--3--3--3--3--3--3--|


  E  E  E  E  E  E  E  E     E  E  E  E  E  E  E  E   
--------------------------|--------------------------|
--------------------------|--------------------------|
--------------------------|--------------------------|
--3--3--3--3--3--3--3--3--|--3--3--3--3--3--3--3--3--|


  E  E  E  E  E  E  E  E     H        E  E  E  E     E  E  E  E  E  E  E  E   
--------------------------|-----------------------|--------------------------|
--------------------------|-----------------------|--------------------------|
-----------------------1--|--L--------L-----------|--------------------------|
--3--3--3--3--3--3--3-----|--------------1-----1--|--3--3--3--3--3--3--3--3--|


  E  E  E  E  E  E  E  E     E  E  E  E  E  E  E  E   
--------------------------|--------------------------|
--------------------------|--------------------------|
--------------------------|--------------------------|
--3--3--3--3--3--3--3--1--|--3--3--3--3--3--3--3--3--|


  E  E  E  E  E  E  E  E     E  E  E  E  E  E  E  E   
--------------------------|--------------------------|
--------------------------|--------------------------|
--------------------------|--------------------------|
--3--3--3--3--3--3--3--1--|--3--3--3--3--3--3--3--3--|


  E  E  E  E  E  E  E  E     E  E  E  E  E  E  E  E     Q    E  E  H         
--------------------------|--------------------------|----------------------|
--------------------------|--------------------------|----------------------|
--------------------------|-----------------------1--|--L----1--1--1--------|
--3--3--3--3--3--3--3--1--|--3--3--3--3--3--3--3-----|----------------------|


  E  E  E  E  E  E  E  E     E  E  E  E  E  E  E  E   
--------------------------|--------------------------|
--------------------------|--------------------------|
--------------------------|--------------------------|
--5--5--5--5--5--5--5--2--|--2--2--2--1--1--0--0--5--|


  E  E  E  E  E  E  E  E     E  E  E  E  E  E  E  E   
--------------------------|--------------------------|
--------------------------|--------------------------|
--------------------------|--6--6-----6--------------|
--5--5--5--5--5--5--5--5--|-----------------3--3-----|


  E  E  E  E  E  E  E  E     E  E  E  E  E  E  E  E   
--------------------------|--------------------------|
--------------------------|--------------------------|
--------------------------|--------------------------|
--5--5--5--5--5--5--5--2--|--2--2--2--1--1--0--0--5--|


  E  E  E  E  E  E  E  E     H        E  E  Q        E  E  E  E  E  E  E  E   
-----------------------5--|--L--------------------|--------------------------|
--------------------------|-----------------------|--------------------------|
--------------------------|--------------6--8\----|--3--3--3--3--3--3--3-----|
--5--5--5--5--5--5--5-----|-----------------------|-----------------------1--|


  E  E  E  E  E  E  E  E     E  E  E  E  E  E  E  E     Q    E  Q.     E  E   
--------------------------|--------------------------|-----------------------|
--------------------------|--------------------------|-----------------------|
-----------------------3--|--3--3--3--3--3--3--3--3--|--1----0---------------|
--3--3--3--3--3--3--3-----|--------------------------|----------3------L--3--|


  E  E  E  E  E  E  E  E     E  E  E  E  E  E  E  E   
--------------------------|--------------------------|
--------------------------|--------------------------|
--3--3--3--3--3--3--3-----|-----------------------3--|
-----------------------1--|--3--3--3--3--3--3--3-----|


  E  E  E  E  E  E  E  E     Q    E  E     W                 
--------------------------|-------------|-------------------|
--------------------------|-------------|-------------------|
--3--3--3--3--3--3--3--3--|--1----0-----|-------------------|
--------------------------|----------3--|--L----------------|


  H.            E   E      E   E   E   E  Q.      E     H.           Q      
-----------------------|--15--17---------------------|---------------------|
---------------13--15--|----------15--13--L------12--|--L------------------|
-----------------------|-----------------------------|---------------------|
--L--------------------|-----------------------------|---------------8\----|


  E  E  E  E  E  E  E  E     E  E  E  E  E  E  E  E   
--------------------------|--------------------------|
--------------------------|--------------------------|
--------------------------|--------------------------|
--3--3--3--3--3--3--3--3--|--3--3--3--3--3--3--3--1--|


  E  E  E  E  E  E  E  E     E  E  E  E  E  E  E  E   
--------------------------|--------------------------|
--------------------------|--------------------------|
--------------------------|--------------------------|
--3--3--3--3--3--3--3--3--|--3--3--3--3--3--3--3--1--|


  E  E  E  E  E  E  E  E     E  E  E  E  E  E  E  E   
--------------------------|--------------------------|
--------------------------|--------------------------|
--------------------------|--------------------------|
--3--3--3--3--3--3--3--3--|--3--3--3--3--3--3--3--1--|


  E  E  E  E  E  E  E  E     Q    E  E  H           E  E  E  E  E  E  E  E   
--------------------------|----------------------|--------------------------|
--------------------------|----------------------|--------------------------|
-----------------------1--|--L----1--1--1--------|--------------------------|
--3--3--3--3--3--3--3-----|----------------------|--5--5--5--5--5--5--5--2--|


  E  E  E  E  E  E  E  E     E  E  E  E  E  E  E  E   
--------------------------|--------------------------|
--------------------------|--------------------------|
--------------------------|--------------------------|
--2--2--2--1--1--0--0--5--|--5--5--5--5--5--5--5--5--|


  E  E  E  E  E  E  E  E     E  E  E  E  E  E  E  E   
--------------------------|--------------------------|
--------------------------|--------------------------|
--6--6-----6--------------|--------------------------|
-----------------3--3-----|--5--5--5--5--5--5--5--2--|


  E  E  E  E  E  E  E  E     E  E  E  E  E  E  E  E     Q    E  E  E  E  Q      
--------------------------|-----------------------5--|--L----------------------|
--------------------------|--------------------------|-------------------------|
--------------------------|--------------------------|----------6-----8--8\----|
--2--2--2--1--1--0--0--5--|--5--5--5--5--5--5--5-----|-------------------------|


  E  E  E  E  E  E  E  E     E  E  E  E  E  E  E  E   
--------------------------|--------------------------|
--------------------------|--------------------------|
--3--3--3--3--3--3--3-----|-----------------------3--|
-----------------------1--|--3--3--3--3--3--3--3-----|


  E  E  E  E  E  E  E  E     Q    E  Q.     E  E     E  E  E  E  E  E  E  E   
--------------------------|-----------------------|--------------------------|
--------------------------|-----------------------|--------------------------|
--3--3--3--3--3--3--3--3--|--1----0---------------|--3--3--3--3--3--3--3-----|
--------------------------|----------3------L--3--|-----------------------1--|


  E  E  E  E  E  E  E  E     E  E  E  E  E  E  E  E     Q.     Q.     Q     
--------------------------|--------------------------|---------------------|
--------------------------|--------------------------|---------------------|
-----------------------3--|--3--3--3--3--3--3--3--3--|--1------0-----------|
--3--3--3--3--3--3--3-----|--------------------------|----------------3----|


  E  E  Q    Q    Q       Q.     Q.     Q       E  E  E  E  E  E  Q      
-----------------------|---------------------|--------------------------|
-----------------------|---------------------|--------------------------|
-----3-------1----0----|--1------0-----------|--------------------3~----|
--L--------------------|----------------3----|--5--8--5--8-----5--------|


  E  E  E  E  Q     Q        E  E  E  E  E  E  Q       E  E  E  E  Q    E  E   
--------------------------|-------------------------|-------------------------|
--------------------------|-------------------------|-------------------------|
--L-----------1~----3~----|-----------------3-------|-------------------------|
-----5-----5--------------|--5-----5--8--------3----|--L--0-----0--3----4--5--|


  E  E  E  E  E  E  Q        E  E  E  E  Q     Q        E  E  E  E  E  E  Q     
--------------------------|--------------------------|-------------------------|
--------------------------|--------------------------|-------------------------|
--------------------3~----|--L-----------1~----3~----|-----------------3-------|
--L--8--5--8-----5--------|-----5-----5--------------|--5-----5--8--------3----|


  E  E  E  E  Q    E  E     E  E  E  E  E  E  Q        E  E  E  E  Q     Q      
-------------------------|--------------------------|--------------------------|
-------------------------|--------------------------|--------------------------|
-------------------------|--------------------3~----|--L-----------1~----3~----|
--L--0-----0--3----4--5--|--L--8--5--8-----5--------|-----5-----5--------------|


  E  E  E  E  E  E  Q       E  E  E  E  Q    E  E     E  E  E  E  E  E  Q      
-------------------------|-------------------------|--------------------------|
-------------------------|-------------------------|--------------------------|
-----------------3-------|-------------------------|--------------------3~----|
--5-----5--8--------3----|--L--0-----0--3----4--5--|--L--8--5--8-----5--------|


  E  E  E  E  Q     Q        E  E  E  E  E  E  Q       E  E  E  E  Q    E  E   
--------------------------|-------------------------|-------------------------|
--------------------------|-------------------------|-------------------------|
--L-----------1~----3~----|-----------------3-------|-------------------------|
-----5-----5--------------|--5-----5--8--------3----|--L--0-----0--3----4-----|


  Q    E  Q.      Q       W                   Q    E  Q.      Q     
-----------------------|-------------------|-----------------------|
-----------------------|-------------------|-----------------------|
--0--------------------|-------------------|--0--------------------|
----------5~-----------|-------------------|----------5~-----------|


  W                   Q    E  Q.      Q       W                 
-------------------|-----------------------|-------------------|
-------------------|-----------------------|-------------------|
-------------------|--0--------------------|-------------------|
-------------------|----------5~-----------|-------------------|


  Q    E  Q.      Q       Q.     E  E  E  E  E     E  E  E  E  E  E  E  E   
-----------------------|------------------------|--------------------------|
-----------------------|------------------------|--------------------------|
--0--------------------|---------0--0-----0--0--|-----0--0--0--0--0--0-----|
----------5~-----------|------------------------|-----------------------5--|


  E  E  E  E  E  E  E  E     E  E  E  E  E  E  E  E   
--------------------------|--------------------------|
--------------------------|--------------------------|
--------------------------|--------------------------|
--0--0--0--0--0--0--0--3--|--5--5--5--5--5--5--5--3--|


  E  E  E  E  E  E  E  E     Q    E  Q.     E  E     E  E  E  E  E  E  E  E   
--------------------------|-----------------------|--------------------------|
--------------------------|-----------------------|--------------------------|
--------------------------|--3----2---------------|--------------------------|
--0--0--0--0--0--0--0--0--|----------5------5--3--|--0--0--0--0--0--0--0--3--|


  E  E  E  E  E  E  E  E     E  E  E  E  E  E  E  E     Q    E  E.  E.  E  E   
--------------------------|--------------------------|------------------------|
--------------------------|--------------------------|------------------------|
--------------------------|--------------------------|--3----2------2---3--5--|
--5--5--5--5--5--5--5--3--|--0--0--0--0--0--0--0--0--|----------5-------------|


  E  E  E  E  E  E  E  E     E  E  E  E  E  E  E  E   
--------------------------|--------------------------|
--------------------------|--------------------------|
--------3-----2--5--5-----|--------------------------|
--0--0-----0-----------3--|--5--5--5--5--5--5--5--3--|


  E  E  E  E  E  E  E  E     Q    E  Q    E  E  E     E  E  E  E  E  E  E  E   
--------------------------|------------------------|--------------------------|
--------------------------|------------------------|--------------------------|
--------------------------|--3----2----------------|--------------------------|
--0--0--0--0--0--0--0--0--|----------5----0--0--0--|--0--0--0--0--0--0--0--3--|


  E  E  E  E  E  E  E  E     E  E  E  E  E  E  E  E     Q    E  E   
--------------------------|--------------------------|-------------|
--------------------------|--------------------------|-------------|
--------------------------|--------------------------|--3----2-----|
--5--5--5--5--5--5--5--3--|--0--0--0--0--0--0--0--0--|----------5--|


  W                   W                   W                 
-------------------|-------------------|-------------------|
-------------------|-------------------|-------------------|
-------------------|-------------------|-------------------|
--L----------------|--L----------------|--L----------------|


  H        E  Q     E     W                   W                 
-----------------------|-------------------|-------------------|
-----------------------|-------------------|-------------------|
--------------8\----3--|-------------------|-------------------|
-----------------------|--5----------------|--L----------------|


  W                   W                  
-------------------|-------------------||
-------------------|-------------------||
-------------------|-------------------||
-------------------|-------------------||




Duration Legend
---------------
W - whole
H - half
Q - quarter
E - 8th
S - 16th
T - 32nd
X - 64th
. - note dotted
|-n-|  - n-tuplets


Tablature Legend
----------------
L - tied note
x - dead note
g - grace note
(n) - ghost note
> - accentuded note
NH - natural harmonic
AH - artificial harmonic
TH - tapped harmonic
SH - semi harmonic
PH - pitch harmonic
h - hammer on
p - pull off
b - bend
br - bendRelease
pb - preBend
pbr - preBendRelease
brb - bendReleaseBend
\n/ - tremolo bar dip
\n - tremolo bar dive
-/n - tremolo bar Release up
/n\ - tremolo bar inverted dip
/n - tremolo bar return
-\n - tremolo bar Release down
S - shift slide
s - legato slide
/ -  slide into from below or out of upwards
\ -  slide into from above or out of downwards
~ - vibrato
W - wide vibrato
tr - trill
TP - tremolo picking
T - tapping
S - slap
P - pop
< - fade in
^ - brush up
v - brush down





Comments


Popular Accept tabs & chords
Fast As A Shark 1 Bass Tabs
Monsterman Bass Tabs
Princess Of The Dawn Bass Tabs
Aiming High Tabs
Bound To Fail Intro Tabs
Helldriver Tabs
I'm A Rebel Tabs
Midnight Mover Tabs
Teutonic Terror Tabs
Teutonic Terror 2 Tabs


Song lyrics



↑ Back to top | Tablatures and chords are parodies/interpretations of the original songs. You may use it for private study, scholarship, research or language learning purposes only
© 2014 AZChords.com Contact us | Privacy policy | DMCA | Add/correct tabs | Request tabs | Top 50 tabs