>
 >
Losers And Winners

Losers And Winners Bass Tabs

Accept - Losers And Winners chords, tabs, tablatures, lyrics

Guitar lessons | Add/correct | Request | Top 50 tabs Artists:  A B C D E F G H I J K L M N O P Q R S T U V W X Y Z 0-9

Losers And Winners Bass Tabs – Accept

CD, Sheet music, Poster

Do you like Losers And Winners? Share with your friends now
Bass TabsTabs
                              Losers And Winners                                


                                                                          Accept
Bass



     W                   W                   W                 
G||-------------------|-------------------|-------------------|
D||-------------------|-------------------|-------------------|
A||-------------------|-------------------|-------------------|
E||-------------------|-------------------|-------------------|


  W                   E  E  E  E  E  E  E  E     E  E  E  E  E  E  E  E   
-------------------|--------------------------|--------------------------|
-------------------|--------------------------|--------------------------|
-------------------|--------------------------|--------------------------|
-------------------|--0--0--0--0--0--0--0--0--|--0--0--0--0--0--0--0--0--|


  E  E  E  E  E  E  E  E     Q.     Q.     Q       E  E  E  E  E  E  E  E   
--------------------------|---------------------|--------------------------|
--------------------------|---------------------|--------------------------|
--------------------------|----------------5----|--------7--------7--------|
--0--0--0--0--0--0--0--0--|--3------2-----------|--0--0-----0--0-----0--0--|


  E  E  E  E  E  E  E  E     E  E  E  E  E  E  E  E   
--------------------------|--------------------------|
--------------------------|--------------------------|
--5--------7--L--7--7-----|--------7--------7--------|
-----0--0--------------0--|--0--0-----0--0-----0--0--|


  E  E  E  E  E  E  E  E     E  E  E  E  E  E  E  E     E  E  E  E  Q    E  E   
--------------------------|--------------------------|-------------------------|
--------------------------|--------------------------|-------------------------|
--3--------5--L--0--2-----|--------7--------7--------|--5--------7--L----------|
-----0--0--------------3--|--0--0-----0--0-----0--0--|-----0--0----------0--0--|


  E  E  E  E  E  E  E  E     Q.     Q.     Q       E  E  E  E  E  E  E  E   
--------------------------|---------------------|--------------------------|
--------------------------|---------------------|--------------------------|
--------7--------7--------|----------------5----|--------------------------|
--0--0-----0--0-----0--0--|--3------2-----------|--0--0--0--0--0--0--0--0--|


  E  E  E  E  E  E  E  E     E  E  E  E  E  E  E  E     H        E  E  E  E   
--------------------------|--------------------------|-----------------------|
--------------------------|--------------------------|-----------------------|
--------------------------|-----------------------5--|--L--------2--0--------|
--0--0--0--0--0--0--0--0--|--0--0--0--0--0--0--0-----|-----------------3--0--|


  E  E  E  E  E  E  E  E     E  E  E  E  E  E  E  E   
--------------------------|--------------------------|
--------------------------|--------------------------|
--------------------------|--------------------------|
--L--0--0--0--0--0--0--0--|--0--0--0--0--0--0--0--0--|


  E  E  E  E  E  E  E  E     E  E  E  E  E  E  E  E   
--------------------------|--------------------------|
--------------------------|--------------------------|
-----------------------3--|--L--0-----5--L--0--------|
--0--0--0--0--0--0--0-----|--------3-----------3--0--|


  E  E  E  E  E  E  E  E     E  E  E  E  E  E  E  E   
--------------------------|--------------------------|
--------------------------|--------------------------|
--------------------------|--------------------------|
--L--0--0--0--0--0--0--0--|--0--0--0--0--0--0--0--0--|


  E  E  E  E  E  E  E  E     Q.     Q.     E  E     Q    E  E  E  E  E  E   
--------------------------|----------------------|-------------------------|
--------------------------|----------------------|-------------------------|
--------------------------|----------------5--7--|--L----------------------|
--0--0--0--0--0--0--0--0--|--3------2------------|-------0--0--0--0--0--0--|


  E  E  E  E  E  E  E  E     E  E  E  E  E  E  E  E     Q.     Q    E  Q     
--------------------------|--------------------------|----------------------|
--------------------------|--------------------------|----------------------|
--------------------------|--------------------------|--5------3----x--0----|
--0--0--0--0--0--0--0--0--|--0--0--0--0--0--0--0--0--|----------------------|


  E  E  E  E  E  E  E  E     E  E  E  E  E  E  E  E   
--------------------------|--------------------------|
--------------------------|--------------------------|
--2--2--2--2--2--2--2--2--|--2--2--2--2--2--2--2--2--|
--------------------------|--------------------------|


  E  E  E  E  E  E  E  E     E  E  E  E  E  E  E  E   
--------------------------|--------------------------|
--------------------------|--------------------------|
--2--2--2--2--2--2--2--2--|--2--2--5--0--2--0-----2--|
--------------------------|--------------------3-----|


  E  E  E  E  E  E  E  E     E  E  E  E  E  E  E  E   
--------------------------|--------------------------|
--------------------------|--------------------------|
--L--2--2--2--2--2--2--2--|--2--2--2--2--2--2--2--0--|
--------------------------|--------------------------|


  E  E  E  E  E  E  E  E     W                   E  E  E  E  E  E  E  E   
--------------------------|-------------------|--------------------------|
--------------------------|-------------------|--------------------------|
--L--0--0--0--0--0--0--0--|-------------------|--------7--------7--------|
--------------------------|-------------------|--0--0-----0--0-----0--0--|


  E  E  E  E  E  E  E  E     E  E  E  E  E  E  E  E   
--------------------------|--------------------------|
--------------------------|--------------------------|
--5--------7--L--7--7-----|--------7--------7--------|
-----0--0--------------0--|--0--0-----0--0-----0--0--|


  E  E  E  E  E  E  E  E     E  E  E  E  E  E  E  E     E  E  E  E  Q    E  E   
--------------------------|--------------------------|-------------------------|
--------------------------|--------------------------|-------------------------|
--3--------5--L--0--2-----|--------7--------7--------|--5--------7--L----------|
-----0--0--------------3--|--0--0-----0--0-----0--0--|-----0--0----------0--0--|


  E  E  E  E  E  E  E  E     Q.     Q.     Q       E  E  E  E  E  E  E  E   
--------------------------|---------------------|--------------------------|
--------------------------|---------------------|--------------------------|
--------7--------7--------|----------------5----|--------------------------|
--0--0-----0--0-----0--0--|--3------2-----------|--0--0--0--0--0--0--0--0--|


  E  E  E  E  E  E  E  E     E  E  E  E  E  E  E  E     H        E  E  E  E   
--------------------------|--------------------------|-----------------------|
--------------------------|--------------------------|-----------------------|
--------------------------|-----------------------5--|--L--------2--0--------|
--0--0--0--0--0--0--0--0--|--0--0--0--0--0--0--0-----|-----------------3--0--|


  E  E  E  E  E  E  E  E     E  E  E  E  E  E  E  E   
--------------------------|--------------------------|
--------------------------|--------------------------|
--------------------------|--------------------------|
--L--0--0--0--0--0--0--0--|--0--0--0--0--0--0--0--0--|


  E  E  E  E  E  E  E  E     E  E  E  E  E  E  E  E   
--------------------------|--------------------------|
--------------------------|--------------------------|
-----------------------3--|--L--0-----5--L--0--------|
--0--0--0--0--0--0--0-----|--------3-----------3--0--|


  E  E  E  E  E  E  E  E     E  E  E  E  E  E  E  E   
--------------------------|--------------------------|
--------------------------|--------------------------|
--------------------------|--------------------------|
--L--0--0--0--0--0--0--0--|--0--0--0--0--0--0--0--0--|


  E  E  E  E  E  E  E  E     Q.     Q.     E  E     Q    E  E  E  E  E  E   
--------------------------|----------------------|-------------------------|
--------------------------|----------------------|-------------------------|
--------------------------|----------------5--7--|--L----------------------|
--0--0--0--0--0--0--0--0--|--3------2------------|-------0--0--0--0--0--0--|


  E  E  E  E  E  E  E  E     E  E  E  E  E  E  E  E     Q.     Q    E  Q     
--------------------------|--------------------------|----------------------|
--------------------------|--------------------------|----------------------|
--------------------------|--------------------------|--5------3----x--0----|
--0--0--0--0--0--0--0--0--|--0--0--0--0--0--0--0--0--|----------------------|


  E  E  E  E  E  E  E  E     E  E  E  E  E  E  E  E   
--------------------------|--------------------------|
--------------------------|--------------------------|
--2--2--2--2--2--2--2--2--|--2--2--2--2--2--2--2--2--|
--------------------------|--------------------------|


  E  E  E  E  E  E  E  E     E  E  E  E  E  E  E  E   
--------------------------|--------------------------|
--------------------------|--------------------------|
--2--2--2--2--2--2--2--2--|--2--2--5--0--2--0-----2--|
--------------------------|--------------------3-----|


  E  E  E  E  E  E  E  E     E  E  E  E  E  E  E  E   
--------------------------|--------------------------|
--------------------------|--------------------------|
--L--2--2--2--2--2--2--2--|--2--2--2--2--2--2--2--0--|
--------------------------|--------------------------|


  E  E  E  E  E  E  E  E     W                   E  E  E  E  E  E  E  E   
--------------------------|-------------------|--------------------------|
--------------------------|-------------------|--------------------------|
--L--0--0--0--0--0--0--0--|-------------------|-----------------------3--|
--------------------------|-------------------|--0--0--0--0--0--2--3-----|


  E  E  E  E  E  E  E  E     E  E  E  E  E  E  E  E   
--------------------------|--------------------------|
--------------------------|--------------------------|
--L--3--3--3--3--3--3--3--|-----------------------5--|
--------------------------|--3--3--3--3--3--3--3-----|


  E  E  E  E  E  E  E  E     E  E  E  E  E  E  E  E   
--------------------------|--------------------------|
--------------------------|--------------------------|
--L--5--5--5--5-----5--0--|-----------------------3--|
-----------------0--------|--0--0--0--0--0--2--3-----|


  E  E  E  E  E  E  Q        E  E  E  E  E  E  E  E     H.           Q      
--------------------------|--------------------------|---------------------|
--------------------------|-----5--4--2--4--0-----0--|---------------------|
--L--3--3--3--3--3--3\----|--------------------2-----|---------------------|
--------------------------|--------------------------|---------------3S----|


  E  E  E  E  E  E  E  E     E  E  E  E  E  E  E  E   
--------------------------|--------------------------|
--------------------------|--------------------------|
-----------------------3--|--L--3--3--3--3--3--3--3--|
--0--0--0--0--0--2--3-----|--------------------------|


  E  E  E  E  E  E  E  E     E  E  E  E  E  E  E  E   
--------------------------|--------------------------|
--------------------------|--------------------------|
-----------------------5--|--L--5--5--5--5-----5--0--|
--3--3--3--3--3--3--3-----|-----------------0--------|


  E  E  E  E  E  E  E  E     E  E  E  E  E  E  Q        Q.     H        E   
--------------------------|--------------------------|---------------------|
--------------------------|--------------------------|---------------------|
-----------------------3--|--L--3--3--3--3--3--3\----|---------------------|
--0--0--0--0--0--2--3-----|--------------------------|--3------0--------L--|


  E  E  E  E  H           H        H           H         
-----------------------|--------------------|-----------|
-----------------------|--------------------|-----------|
--3-----3--2--L--------|--L-----------------|-----------|
-----------------------|--------------------|-----------|


  E  E  E  E  E  E  E  E     E  E  E  E  E  E  E  E   
--------------------------|--------------------------|
--------------------------|--------------------------|
--------7--------7--------|--5--------7--L--7--7-----|
--0--0-----0--0-----0--0--|-----0--0--------------0--|


  E  E  E  E  E  E  E  E     E  E  E  E  E  E  E  E   
--------------------------|--------------------------|
--------------------------|--------------------------|
--------7--------7--------|--3--------5--L--0--2-----|
--0--0-----0--0-----0--0--|-----0--0--------------3--|


  E  E  E  E  E  E  E  E     E  E  E  E  Q    E  E     E  E  E  E  E  E  E  E   
--------------------------|-------------------------|--------------------------|
--------------------------|-------------------------|--------------------------|
--------7--------7--------|--5--------7--L----------|--------7--------7--------|
--0--0-----0--0-----0--0--|-----0--0----------0--0--|--0--0-----0--0-----0--0--|


  Q.     Q.     Q       E  E  E  E  E  E  E  E     E  E  E  E  E  E  E  E   
---------------------|--------------------------|--------------------------|
---------------------|--------------------------|--------------------------|
----------------5----|--------------------------|--------------------------|
--3------2-----------|--0--0--0--0--0--0--0--0--|--0--0--0--0--0--0--0--0--|


  E  E  E  E  E  E  E  E     H        E  E  E  E     E  E  E  E  E  E  E  E   
--------------------------|-----------------------|--------------------------|
--------------------------|-----------------------|--------------------------|
-----------------------5--|--L--------2--0--------|--------------------------|
--0--0--0--0--0--0--0-----|-----------------3--0--|--L--0--0--0--0--0--0--0--|


  E  E  E  E  E  E  E  E     E  E  E  E  E  E  E  E   
--------------------------|--------------------------|
--------------------------|--------------------------|
--------------------------|-----------------------3--|
--0--0--0--0--0--0--0--0--|--0--0--0--0--0--0--0-----|


  E  E  E  E  E  E  E  E     E  E  E  E  E  E  E  E   
--------------------------|--------------------------|
--------------------------|--------------------------|
--L--0-----5--L--0--------|--------------------------|
--------3-----------3--0--|--L--0--0--0--0--0--0--0--|


  E  E  E  E  E  E  E  E     E  E  E  E  E  E  E  E     Q.     Q.     E  E   
--------------------------|--------------------------|----------------------|
--------------------------|--------------------------|----------------------|
--------------------------|--------------------------|----------------5--7--|
--0--0--0--0--0--0--0--0--|--0--0--0--0--0--0--0--0--|--3------2------------|


  Q    E  E  E  E  E  E     E  E  E  E  E  E  E  E     E  E  E  E  E  E  E  E   
-------------------------|--------------------------|--------------------------|
-------------------------|--------------------------|--------------------------|
--L----------------------|--------------------------|--------------------------|
-------0--0--0--0--0--0--|--0--0--0--0--0--0--0--0--|--0--0--0--0--0--0--0--0--|


  Q.     Q    E  Q       E  E  E  E  E  E  E  E     E  E  E  E  E  E  E  E   
----------------------|--------------------------|--------------------------|
----------------------|--------------------------|--------------------------|
--5------3----x--0----|--2--2--2--2--2--2--2--2--|--2--2--2--2--2--2--2--2--|
----------------------|--------------------------|--------------------------|


  E  E  E  E  E  E  E  E     E  E  E  E  E  E  E  E   
--------------------------|--------------------------|
--------------------------|--------------------------|
--2--2--2--2--2--2--2--2--|--2--2--5--0--2--0-----2--|
--------------------------|--------------------3-----|


  E  E  E  E  E  E  E  E     E  E  E  E  E  E  E  E   
--------------------------|--------------------------|
--------------------------|--------------------------|
--L--2--2--2--2--2--2--2--|--2--2--2--2--2--2--2--0--|
--------------------------|--------------------------|


  E  E  E  E  E  E  E  E     W                   E  E  E  E  E  E  E  E   
--------------------------|-------------------|--------------------------|
--------------------------|-------------------|--------------------------|
--L--0--0--0--0--0--0--0--|-------------------|-----------------------3--|
--------------------------|-------------------|--0--0--0--0--0--2--3-----|


  E  E  E  E  E  E  E  E     E  E  E  E  E  E  E  E   
--------------------------|--------------------------|
--------------------------|--------------------------|
--L--3--3--3--3--3--3--3--|-----------------------5--|
--------------------------|--3--3--3--3--3--3--3-----|


  E  E  E  E  E  E  E  E     E  E  E  E  E  E  E  E   
--------------------------|--------------------------|
--------------------------|--------------------------|
--L--5--5--5--5-----5--0--|-----------------------3--|
-----------------0--------|--0--0--0--0--0--2--3-----|


  E  E  E  E  E  E  Q        E  E  E  E  E  E  E  E     H.           Q      
--------------------------|--------------------------|---------------------|
--------------------------|-----5--4--2--4--0-----0--|---------------------|
--L--3--3--3--3--3--3\----|--------------------2-----|---------------------|
--------------------------|--------------------------|---------------3S----|


  E  E  E  E  E  E  E  E     E  E  E  E  E  E  E  E   
--------------------------|--------------------------|
--------------------------|--------------------------|
-----------------------3--|--L--3--3--3--3--3--3--3--|
--0--0--0--0--0--2--3-----|--------------------------|


  E  E  E  E  E  E  E  E     E  E  E  E  E  E  E  E   
--------------------------|--------------------------|
--------------------------|--------------------------|
-----------------------5--|--L--5--5--5--5-----5--0--|
--3--3--3--3--3--3--3-----|-----------------0--------|


  E  E  E  E  E  E  E  E     E  E  E  E  E  E  Q        Q.     H        E   
--------------------------|--------------------------|---------------------|
--------------------------|--------------------------|---------------------|
-----------------------3--|--L--3--3--3--3--3--3\----|---------------------|
--0--0--0--0--0--2--3-----|--------------------------|--3------0--------L--|


  E  E  E  E  H           E  E  E  E  H           E  E  E  E  H         
-----------------------|-----------------------|-----------------------|
-----------------------|-----------------------|-----------------------|
--3-----3--2--L--------|--3-----3--2--L--------|-----------------------|
-----------------------|-----------------------|--3-----3--2--L--------|


  E  E  E  E  E  E  E  E     E  E  E  E  E  E  E  E   
--------------------------|--------------------------|
--------------------------|--------------------------|
--3-----3--2--L--2--2--2--|--2--2--2--2--2--2--2--2--|
--------------------------|--------------------------|


  E  E  E  E  E  E  E  E     E  E  E  E  E  E  E  E   
--------------------------|--------------------------|
--------------------------|--------------------------|
--2--2--2--2--2--2--2--2--|--2--2--2--2--2--2--2--2--|
--------------------------|--------------------------|


  E  E  E  E  E  E  E  E     E  E  E  E  E  E  E  E   
--------------------------|--------------------------|
--------------------------|--------------------------|
--2--2--2--2--2--2--2--2--|--2--2--2--2--2--2--2--2--|
--------------------------|--------------------------|


  E  E  E  E  E  E  E  E     E  E  E  E  E  E  E  E   
--------------------------|--------------------------|
--------------------------|--------------------------|
--2--2--2--2--2--2--2--2--|--2--2--2--2--2--2--2--2--|
--------------------------|--------------------------|


  E  E  E  E  E  E  E  E     E  E  E  E  E  E  E  E     E  E  E  E   
--------------------------|--------------------------|--------------|
--------------------------|--------------------------|--------------|
--2--2--2-----------------|-----------2--L--2--2--2--|--2--2--2--2--|
-----------2--L--2--2--2--|--2--2--2-----------------|--------------|


  E  E  E  E  E  E  E  E     E  E  E  E  E  E  Q       E  E  E  E  E  E  E  E   
--------------------------|-------------------------|--------------------------|
--------------------------|-------------------------|--------------------------|
--------------------------|--------------------5----|--------------------------|
--0--0--0--0--0--0--0--0--|--0--0--0--0--0--0-------|--0--0--0--0--0--0--0--0--|


  E  E  E  E  E  E  Q       E  E  E  E  E  E  E  E     E  E  E  E  E  E  Q     
-------------------------|--------------------------|-------------------------|
-------------------------|--------------------------|-------------------------|
--------------------5----|--------------------------|--------------------5----|
--0--0--0--0--0--0-------|--0--0--0--0--0--0--0--0--|--0--0--0--0--0--0-------|


  W                   H.           E  E     E  E  E  E  E  E  E  E   
-------------------|---------------------|--------------------------|
-------------------|---------------------|--------------------------|
--1----------------|--L------------L-----|--------------------------|
-------------------|---------------------|--0--0--0--0--0--0--0--0--|


  E  E  E  E  E  E  Q       E  E  E  E  E  E  E  E     E  E  E  E  E  E  Q     
-------------------------|--------------------------|-------------------------|
-------------------------|--------------------------|-------------------------|
--------------------5----|--------------------------|--------------------5----|
--0--0--0--0--0--0-------|--0--0--0--0--0--0--0--0--|--0--0--0--0--0--0-------|


  E  E  E  E  E  E  E  E     E  E  E  E  E  E  Q       E  E  E  E  E  E  E  E   
--------------------------|-------------------------|--------------------------|
--------------------------|-------------------------|--------------------------|
--------------------------|--------------------5----|--------------------------|
--0--0--0--0--0--0--0--0--|--0--0--0--0--0--0-------|--0--0--0--0--0--0--0--0--|


  Q.     Q.     Q       E  E  E  E  E  E  E  E     E  E  E  E  E  Q    E   
---------------------|--------------------------|-------------------------|
---------------------|--------------------------|-------------------------|
--5------3------0----|--2--2--2--2--2--2--2--2--|--2--2--2--2--5-------5--|
---------------------|--------------------------|-------------------------|


  Q    E  E  E  E  E  E     E  E  E  E  E  E  E  E     E  E  E  E  E  E  E  E   
-------------------------|--------------------------|--------------------------|
-------------------------|--------------------------|--------------------------|
-------2--2--2--2--2--2--|--2--2--0--2--5--2--0--2--|--L--2--2--2--2--2--2--2--|
-------------------------|--------------------------|--------------------------|


  E  E  E  E  E  E  E  E     E  E  E  E  E  E  E  E     E  E  H.            
--------------------------|--------------------------|---------------------|
--------------------------|--------------------------|---------------------|
--2--2--2--2--2--2--2--0--|--0--0--0--0--0--0--0--0--|--0------------------|
--------------------------|--------------------------|---------------------|


  E  E  E  E  E  E  E  E     E  E  E  E  E  E  E  E   
--------------------------|--------------------------|
--------------------------|--------------------------|
-----------------------3--|--L--3--3--3--3--3--3--3--|
--0--0--0--0--0--2--3-----|--------------------------|


  E  E  E  E  E  E  E  E     E  E  E  E  E  E  E  E   
--------------------------|--------------------------|
--------------------------|--------------------------|
-----------------------5--|--L--5--5--5--5-----5--0--|
--3--3--3--3--3--3--3-----|-----------------0--------|


  E  E  E  E  E  E  E  E     E  E  E  E  E  E  Q      
--------------------------|--------------------------|
--------------------------|--------------------------|
-----------------------3--|--L--3--3--3--3--3--3\----|
--0--0--0--0--0--0--0-----|--------------------------|


  E  E  E  E  E  E  E  E     H.           Q        E  E  E  E  E  E  E  E   
--------------------------|---------------------|--------------------------|
-----5--4--2--4--0-----0--|---------------------|--------------------------|
--------------------2-----|---------------------|-----------------------3--|
--------------------------|---------------3S----|--0--0--0--0--0--2--3-----|


  E  E  E  E  E  E  E  E     E  E  E  E  E  E  E  E   
--------------------------|--------------------------|
--------------------------|--------------------------|
--L--3--3--3--3--3--3--3--|-----------------------5--|
--------------------------|--3--3--3--3--3--3--3-----|


  E  E  E  E  E  E  E  E     E  E  E  E  E  E  E  E   
--------------------------|--------------------------|
--------------------------|--------------------------|
--L--5--5--5--5-----5--0--|-----------------------3--|
-----------------0--------|--0--0--0--0--0--2--3-----|


  E  E  E  E  E  E  E  E     E  E  E  E  E  E  E  E   
--------------------------|--------------------------|
-----------------------2--|--L--2--1-----------------|
--L--3--3--3--3--3--3-----|-----------3--2-----------|
--------------------------|-----------------3--2--0--|


  E  E  E  E  E  E  E  E     E  E  E  E  E  E  E  E   
--------------------------|--------------------------|
--------------------1--2--|--------------------------|
--------------2--3--------|-----------------------3--|
--L--0--2--3--------------|--0--0--0--0--0--2--3-----|


  E  E  E  E  E  E  E  E     E  E  E  E  E  E  E  E   
--------------------------|--------------------------|
--------------------------|--------------------------|
--L--3--3--3--3--3--3--3--|-----------------------5--|
--------------------------|--3--3--3--3--3--3--3-----|


  E  E  E  E  E  E  E  E     E  E  E  E  E  E  E  E   
--------------------------|--------------------------|
--------------------------|--------------------------|
--L--5--5--5--5-----5--0--|-----------------------3--|
-----------------0--------|--0--0--0--0--0--2--3-----|


  E  E  E  E  E  E  E  E     E  E  E  E  E  E  E  E   
--------------------------|--------------------------|
--------------------------|--------------------------|
--L--3--3--3--3--3--3--2--|--L--2--2--2--2--2--2--2--|
--------------------------|--------------------------|


  E  E  E  E  E  E  E  E     E  E  E  E  E  E  E  E   
--------------------------|--------------------------|
--------------------------|--------------------------|
--2--2--2--2--2-----2-----|-----------------------3--|
--------------------------|--0--0--0--0--0--2--3-----|


  E  E  E  E  E  E  E  E     E  E  E  E  E  E  E  E   
--------------------------|--------------------------|
--------------------------|--------------------------|
--L--3--3--3--3--3--3--3--|-----------------------5--|
--------------------------|--3--3--3--3--3--3--3-----|


  E  E  E  E  E  E  E  E     E  E  E  E  E  E  E  E   
--------------------------|--------------------------|
--------------------------|--------------------------|
--L--5--5--5--5-----5--0--|-----------------------3--|
-----------------0--------|--0--0--0--0--0--2--3-----|


  E  E  E  E  E  E  E  E     E  E  E  E  E  E  E  E   
--------------------------|--------------------------|
--------------------------|-----2--1-----------------|
--L--3--3--3--3--3--3--3--|-----------3--2-----------|
--------------------------|-----------------3--2--0--|


  E  E  E  E  E  E  E  E    
--------------------------||
--------------------1-----||
--------------2--3--------||
--L--0--2--3-----------0--||




Duration Legend
---------------
W - whole
H - half
Q - quarter
E - 8th
S - 16th
T - 32nd
X - 64th
. - note dotted
|-n-|  - n-tuplets


Tablature Legend
----------------
L - tied note
x - dead note
g - grace note
(n) - ghost note
> - accentuded note
NH - natural harmonic
AH - artificial harmonic
TH - tapped harmonic
SH - semi harmonic
PH - pitch harmonic
h - hammer on
p - pull off
b - bend
br - bendRelease
pb - preBend
pbr - preBendRelease
brb - bendReleaseBend
\n/ - tremolo bar dip
\n - tremolo bar dive
-/n - tremolo bar Release up
/n\ - tremolo bar inverted dip
/n - tremolo bar return
-\n - tremolo bar Release down
S - shift slide
s - legato slide
/ -  slide into from below or out of upwards
\ -  slide into from above or out of downwards
~ - vibrato
W - wide vibrato
tr - trill
TP - tremolo picking
T - tapping
S - slap
P - pop
< - fade in
^ - brush up
v - brush down





Comments


Popular Accept tabs & chords
Donation Bass Tabs
I Wanna Be No Hero Bass Tabs
Princess Of The Dawn Bass Tabs
Save Us Bass Tabs
Balls To The Wall Intro Tabs
Breaker Live Tabs
Head Over Heels Tabs
Heaven Is Hell Tabs
Living Fot Tonight Tabs
Screaming For A Love Bite Intro Tabs


Song lyrics



↑ Back to top | Tablatures and chords are parodies/interpretations of the original songs. You may use it for private study, scholarship, research or language learning purposes only
© 2014 AZChords.com Contact us | Privacy policy | DMCA | Add/correct tabs | Request tabs | Top 50 tabs