» » »

Accept, Fast As A Shark Bass tabs (ver.1)

Artists:  A B C D E F G H I J K L M N O P Q R S T U V W X Y Z # 

Fast As A Shark Bass tabs (ver.1)

Accept Tabs
Rating:
4/5 (1 vote)
Fast As A Shark lessons Tabs too difficult? Try these video lessons and learn fast
                Fast As A Shark - Accept


G|-----------------------
D|-----------------------  	2x 
A|------------1-0-1-0-10-
E|-0000000000------------

G|------------------------------
D|------------------------------
A|-0000000000-------------------
E|------------33333333-11111111-

G|-----------------------
D|-----------------------  	2x 
A|------------1-0-1-0-10-
E|-0000000000------------

G|-------------------------------------
D|-00000000-33333333-------------------
A|-------------------00000000-22222222-
E|-------------------------------------

Repeat all

G|-----------------------------
D|-------------2-------0---2--- 	2x
A|-----0---3-------3------(2)--
E|-3---------------------------

Repeat all and end on the 2nd fret of A, not D

G|--------------------------
D|--------------------------  	2x
A|-----1--3--4-3-1----1-3---
E|-3---------------3--------

G|--------------------------
D|--------------------------  	
A|-----1--6--7-6-4----4-6---
E|-6---------------6--------

G|--------------------------
D|-----2--4--5-4-2----2-0---  	
A|-4---------------4--------
E|--------------------------

G|--------------------------
D|--------------------------  	
A|-----1--3--4-3-1----1-3---
E|-3---------------3--------

G|--------------------------
D|--------------------------  	
A|-----1--6--7-6-4----4-6---
E|-6---------------6--------

G|---------------------------
D|-----2--4--5-4-2----0------  	
A|-4---------------4----4----
E|---------------------------

G|----------------------------------
D|-------0------------------0-------  	
A|-2---4---4--0-------0---4---4--2--
E|----------------2-----------------

G|-------------------------
D|-------------------------	
A|-2------------0--1-2-3-4-
E|------2----3-------------

G|---------------------------------------------
D|---------------------------------------------  	2x  	
A|-5555555555-7777777777-0000000000-5555555555-
E|---------------------------------------------

G|---------------------------------------
D|---------------------------------------	
A|-2222222222-7777777777-0000000000-5----
E|---------------------------------------

G|--------------------------------
D|------------------------0-------
A|--------------------------0-2---
E|-3-0---3-0--3-5--3-0------------

G|-----------------------------
D|-------------2-------0---2--- 	3x
A|-----0---3-------3-----------
E|-3---------------------------

G|-------------------------------------------------
D|-------------2------0-----0-----0-----2-----0--2-
A|-----0---3-------3-----3-----3-----------3-------
E|-3-----------------------------------------------
            
Submit corrections

comments powered by Disqus
↑ Back to top | Accept Bass for Fast As A Shark. Lyrics for acoustic guitar and electric guitar. Tablatures and chords are parodies/interpretations of the original songs. You may use it for private study, scholarship, research or language learning purposes only