» » »

A.C.A.B, Racial Hatred Tabs (ver.2)

Artists:  A B C D E F G H I J K L M N O P Q R S T U V W X Y Z # 

Racial Hatred Tabs (ver.2)

A.C.A.B Tabs
Rating:
0/5 (0 votes)
Racial Hatred lessons Tabs too difficult? Try these video lessons and learn fast
                Band		:A.C.A.B.
Song		:Racial Hatred I 
Tuning		:Standard (E,A,D,G,B,E)

(m = palm mute)
(~ = let ring)

Song's Order:
	-Intro
	-Pre-Verse
	-Verse
	-Interlude1
	-Verse
	-Chorus
	-Pre-Verse
	-Verse
	-Chorus
	-Solo
	-Chorus
	-Interlude2
	-Chorus
	-Ending

Intro (Repeat 4x)

  ~               ~     ~     ~
E|--------------------------------|
B|--------------------------------|
G|----------------5---------------|
D|2---------------5-----5-----7---|
A|2---------------3-----5-----7---|
E|0---------------------3-----5---|
  1 + 2 + 3 + 4 + 1 + 2 + 3 + 4 +


Pre-Verse

      m m m   m m     m     m         m m m   m m     m     m
E|----------------------------7-------------------------------5---|
B|----------------------------------------------------------------|
G|----------------5---5---------------------------5---5-----------|
D|2---2-2-2-2-2-2-5---5-5---5-----2---2-2-2-2-2-2-5---5-5---5-----|
A|2---2-2-2-2-2-2-3---3-5---5-----2---2-2-2-2-2-2-3---3-5---5-----|
E|0---0-0-0-0-0-0-------3---3-----0---0-0-0-0-0-0-------3---3-----|
  1 + 2 + 3 + 4 + 1 + 2 + 3 + 4 + 1 + 2 + 3 + 4 + 1 + 2 + 3 + 4 +

      m m m   m m     m     m         m m m   m m     m     m
E|----------------------------5-------------------------------5---|
B|----------------------------------------------------------------|
G|----------------5---5---------------------------5---5-----------|
D|2---2-2-2-2-2-2-5---5-5---5-----2---2-2-2-2-2-2-5---5-5---5-----|
A|2---2-2-2-2-2-2-3---3-5---5-----2---2-2-2-2-2-2-3---3-5---5-----|
E|0---0-0-0-0-0-0-------3---3-----0---0-0-0-0-0-0-------3---3-----|
  1 + 2 + 3 + 4 + 1 + 2 + 3 + 4 + 1 + 2 + 3 + 4 + 1 + 2 + 3 + 4 +


Verse (Repeat 4x)

      m m m   m m     m     m
E|--------------------------------|
B|--------------------------------|
G|----------------5---5-----------| 
D|2---2-2-2-2-2-2-5---5-5---5-7---|
A|2---2-2-2-2-2-2-3---3-5---5-7---|
E|0---0-0-0-0-0-0-------3---3-5---|
  1 + 2 + 3 + 4 + 1 + 2 + 3 + 4 + 


Interlude1 

      m m m   m m     m     m         m m m   m m     m     m
E|----------------------------7-------------------------------5---|
B|----------------------------------------------------------------|
G|----------------5---5---------------------------5---5-----------|
D|2---2-2-2-2-2-2-5---5-5---5-----2---2-2-2-2-2-2-5---5-5---5-----|
A|2---2-2-2-2-2-2-3---3-5---5-----2---2-2-2-2-2-2-3---3-5---5-----|
E|0---0-0-0-0-0-0-------3---3-----0---0-0-0-0-0-0-------3---3-----|
  1 + 2 + 3 + 4 + 1 + 2 + 3 + 4 + 1 + 2 + 3 + 4 + 1 + 2 + 3 + 4 +


Chorus (Repeat 4x)


E|----------------------------------------------------------------|
B|----------------------------------------------------------------|
G|----------------9---9-9-9-9-7-7-5---5-5-5-5-5-5-7---7-7-7-7-7-7-|
D|5---5-5-5-5-5-5-9---9-9-9-9-7-7-5---5-5-5-5-5-5-7---7-7-7-7-7-7-|
A|5---5-5-5-5-5-5-7---7-7-7-7-5-5-3---3-3-3-3-3-3-5---5-5-5-5-5-5-|
E|3---3-3-3-3-3-3-------------------------------------------------|
  1 + 2 + 3 + 4 + 1 + 2 + 3 + 4 + 1 + 2 + 3 + 4 + 1 + 2 + 3 + 4 + 


Solo (Not Done Yet)


Interlude2

      m m m m m m m m m m m m m m m m m m m m m m
E|----------------------------------------------------------------|
B|----------------------------------------------------------------|
G|------------------------------------------------9-9-9-9-9-9-9-9-|
D|2---2-2-2-2-2-2-2-2-2-2-2-2-2-2-2-2-2-2-2-2-2-2-9-9-9-9-9-9-9-9-|
A|2---2-2-2-2-2-2-2-2-2-2-2-2-2-2-2-2-2-2-2-2-2-2-7-7-7-7-7-7-7-7-|
E|0---0-0-0-0-0-0-0-0-0-0-0-0-0-0-0-0-0-0-0-0-0-0-----------------|
  1 + 2 + 3 + 4 + 1 + 2 + 3 + 4 + 1 + 2 + 3 + 4 + 1 + 2 + 3 + 4 + 


Ending

  ~
E|----------------|
B|----------------|
G|----------------|
D|5---------------|
A|5---------------|
E|3---------------|
  1 + 2 + 3 + 4 +
            
Submit corrections

comments powered by Disqus
↑ Back to top | A.C.A.B Tabs for Racial Hatred. Lyrics for acoustic guitar and electric guitar. Tablatures and chords are parodies/interpretations of the original songs. You may use it for private study, scholarship, research or language learning purposes only