» » »

Goodbye Tabs (ver.1)

Artists:  A B C D E F G H I J K L M N O P Q R S T U V W X Y Z # 

Goodbye Tabs (ver.1)

A.C.A.B
Rating:
0/5 (0 votes)

Hard to play? Try these video lessons and learn fast.
                The A.C.A.B
Goodbye tabs
Done by Luqman :)

Starting..
e|--------------------------------------------------|
A|--------------------------------------------------|
D|--------------88-88-88-8-7-55-55-55-55------------|
G|--88-88-88-88-88-88-88-8-7-55-55-55-55-333333333--|
B|--88-88-88-88-66-66-66-6-5-33-33-33-33-333333333--|
E|--66-66-66-66--------------------------111111111--|


Verse(Thinkin of wad i've been through...)
e|--------------------------------------------------------------------------------------|
A|--------------------------------------------------------------------------------------|
D|--------------8-----------7-----------5-----------------------------------------------|
G|--8-----5-----8-----3-----7-----5-----5-----333333333---------------------------------|
B|--8-----5-----6-----3-----5-----5-----3-----333333333---------------------------------|
E|--6-----3-----------1-----------3-----------111111111---------------------------------|

2nd Verse(But I'm thinkin' of what im today..)
e|-------------------------------------------------------|
A|-------------------------------------------------------|
D|--------------88-88-------77-77-------55-55------------|
G|--88-88-55-55-88-88-33-33-77-77-55-55-55-55-333333333--|
B|--88-88-55-55-66-66-33-33-55-55-55-55-33-33-333333333--|
E|--66-66-33-33-------11-11-------33-33-------111111111--|


Bridge(Some might say that I killed the revolution_
e|---------------------------------------------|
A|---------------------------------------------|
D|--7-----7-------------55-55-55-55------------|
G|--7-----7-55-55-55-55-55-55-55-55-333333333--|
B|--5-----5-55-55-55-55-33-33-33-33-333333333--|
E|----------33-33-33-33-------------111111111--|


Chorus(Oh how do I...say goodbye)2x
e|--------------------------------------------------|
A|--------------------------------------------------|
D|--------------88-88-88-8-7-55-55-55-55------------|
G|--88-88-88-88-88-88-88-8-7-55-55-55-55-333333333--|
B|--88-88-88-88-66-66-66-6-5-33-33-33-33-333333333--|
E|--66-66-66-66--------------------------111111111--|


The solo part the rythm play like the chorus..2 times
and then repeat all over again...
Enjoy!
            
Hard to play? Try these video lessons and learn fast. | Correct




comments powered by Disqus
↑ Back to top | Tablatures and chords are parodies/interpretations of the original songs. You may use it for private study, scholarship, research or language learning purposes only