» » »

A.C.A.B, Goodbye Bass tabs (ver.1)

Artists:  A B C D E F G H I J K L M N O P Q R S T U V W X Y Z # 

Goodbye Bass tabs (ver.1)

A.C.A.B Tabs
Rating:
0/5 (0 votes)
Goodbye lessons Tabs too difficult? Try these video lessons and learn fast
                The A.C.A.b
Goodbye bass tabs

starting..

G|-------------------------------------------------------------------------------------|
D|-------------------------------------------------------------------------------------|
A|-----------------------55-0-55-0-55-0-5-0-4-0-22-0-22-0-22-0-22-0--------------------|
D|--55-0-55-0-55-0-555-0--------------------------------------------0-0-0-0-0-0-0-0-0--|

verse..(Thnkin' of what I've been through....)

G|---------------------------------------------------------------------|
D|---------------------------------------------------------------------|
A|--------------5-----------4-----------2------------------------------|
D|--5-----2-----------0-----------2-----------0-0-0-0-0-0-0------------|

G|---------------------------------------------------------------------------------------|
D|---------------------------------------------------------------------------------------|
A|----------------------55-0-55-0-----------44-0-44-0-----------22-0-22-0----------------|
D|--55-0-55-0-22-0-22-0-----------00-0-00-0-----------22-0-22-0-----------0-0-0-0-0-0-0--|

(Some might say that I killed the revolution...)

G|------------------------------------------------------------------------------|
D|------------------------------------------------------------------------------|
A|--4-----4-----------------------22-0-22-0-22-0-22-0---------------------------|
D|--------------22-0-22-0-22-0-22---------------------0-0-0-0-0-0-0-0-0---------|

Chorus..(I do mind..say goodbye..)
Go back to the 1st one..Play 2x follow the song...:)

Solo(The same as chorus..)


and repeat all over again...follow the song...:)
good luck dude!
            
Submit corrections

comments powered by Disqus
↑ Back to top | A.C.A.B Bass for Goodbye. Lyrics for acoustic guitar and electric guitar. Tablatures and chords are parodies/interpretations of the original songs. You may use it for private study, scholarship, research or language learning purposes only