>
 >
 >
Rush Song 1

Rush Song 1 Guitar Tabs

A - Rush Song 1 chords, tabs, tablatures, lyrics

Guitar lessons | Add/correct | Request | Top 50 tabs Artists:  A B C D E F G H I J K L M N O P Q R S T U V W X Y Z 0-9

Rush Song 1 Guitar Tabs – A

CD, Sheet music, Poster

Do you like Rush Song 1? Share with your friends now
TabsTabs v2
Band: 'A'

Tuning: DADGBe

Key: <> Harmonic (Number inside)
     \  Slide Down
     /  Slide Up
     x  (On fret board) Pick scrapes (with slide symbols)
     x  Palm Mute
     h  Hammer
Intro
|----------------------------------------------------------|
|----------------------------------------------------------|
|----------------------------------------------------------|
|----------------------------------------------------------|
|----------------------------------------------------------|
|--0-0-10-0-10-12-0-0-0-0-10-0-10-12-0-0-0-0-10-0-10-12-0--|

|------------------------|
|------------------------|
|------------------------|
|------------------------|
|------------------------|
|--0-14-0-0-15-0-0-14-0--|

Verse 1
|----------------------------------------|
|----------------------------------------|
|----------------------------------------|
|----------------------------------------|
|----------------------------------------|
|--<3><3><3><3><3><3><3><3><3><3><3><3>--|

|----------------------------------------|
|----------------------------------------|
|----------------------------------------|
|----------------------------------------|
|----------------------------------------|
|--<4><4><4><4><4><4><4><4><5><5><5><5>--|

|----------------------------------------------------------|
|----------------------------------------------------------|
|----------------------------------------------------------|
|----------------------------------------------------------|
|----------------------------------------------------------|
|--0-0-10-0-10-12-0-0-0-0-10-0-10-12-0-0-0-0-10-0-10-12-0--|

|------------------------|
|------------------------|
|------------------------|
|------------------------|
|------------------------|
|--0-14-0-0-15-0-0-14-0--|

|---------------------------------------------------------|
|---------------------------------------------------------|
|------------7--------------------------------------------|
|------------7--------------------------------------------|
|--0---------5---------------12\---------/12-----------0--|
|--0-------------------------12\---------/12-----------0--|

|----------------------------------------------------------|
|----------------------------------------------------------|
|----------------------------------------------------------|
|----------------------------------------------------------|
|----------------------------------------------------------|
|--0-0-10-0-10-12-0-0-0-0-10-0-10-12-0-0-0-0-10-0-10-12-0--|

|------------------------|
|------------------------|
|------------------------|
|------------------------|
|------------------------|
|--0-14-0-0-15-0-0-14-0--|

Pre-Chorus
|-------------------------------------------|
|-------------------------------------------|
|-------------------------------------------|
|-------------------------------------------|
|--5-------5--5---5------5--5---5----5---5--|
|--5-------5--5---5------5--5---5----5---5--|

|-------------------------------------------|
|-------------------------------------------|
|-------------------------------------------|
|-------------------------------------------|
|--5-------5--5---5------5--5---5----5---7--|
|--5-------5--5---5------5--5---5----5---7--|

|---------------------------------|
|---------------------------------|
|---------------------------------|
|--------------4--------2---------|
|--2-------2-------------------2--|
|--2------------------------------|

|-------------------------------------------|
|-------------------------------------------|
|-------------------------------------------|
|-------------------------------------------|
|--2-------2--2---2------2--2---2----5---5--|
|--2-------2--2---2------2--2---2----5---5--|

Chorus 1
|---------------------------------------------------------------|
|---------------------------------------------------------------|
|---------------------------------------------------------------|
|--5---------5--------5-----5--5---5---------5--------5---5--5--|
|--3---------3--------3-----3--3---3---------3--------3---3--3--|
|---------------------------------------------------------------|

|---------------------------------------------------------------------|
|---------------------------------------------------------------------|
|---------------------------------------------------------------------|
|--2----------2---------2----2----2----2----2----2----2----2---2---2--|
|--0----------0---------0----0----0----0----0----0----0----0---0---0--|
|---------------------------------------------------------------------|

w/wah
|--------------------------------------------------|
|--------------------------------------------------|
|--0--0--0--0--0--0--0--0--0--0--0--0--0--0--0--0--|
|--------------------------------------------------|
|--------------------------------------------------|
|--------------------------------------------------|

|----------------------------------------------------|
|----------------------------------------------------|
|--<5><5><5><5>--------------------------------------|
|--------------<5><5><5><5>--------------------------|
|--------------------------<5><5><5><5>--------------|
|--------------------------------------<5><5><5><5>--|

|-----------------------|
|-----------------------|
|-----------------------|
|--2--2--2--2-----------|
|--0--0--0--0--2--3--2--|
|-----------------------|

|-----|
|-----|
|-----|
|-----|
|--0--|
|--0--|

Verse 2
w/wah
|----------------------------------------------------------|
|----------------------------------------------------------|
|----------------------------------------------------------|
|----------------------------------------------------------|
|----------------------------------------------------------|
|--0-0-10-0-10-12-0-0-0-0-10-0-10-12-0-0-0-0-10-0-10-12-0--|

|------------------------|
|------------------------|
|------------------------|
|------------------------|
|------------------------|
|--0-14-0-0-15-0-0-14-0--|

|----------------------------------------------------|
|----------------------------------------------------|
|--<5><5><5><5><5><5><5><5>--------------------------|
|--------------------------<5><5><5><5><5><5><5><5>--|
|----------------------------------------------------|
|----------------------------------------------------|

|----------------------------------------------------|
|----------------------------------------------------|
|----------------------------------------------------|
|----------------------------------------------------|
|--<5><5><5><5><5><5><5><5>--------------------------|
|--------------------------<5><5><5><5><5><5><5><5>--|

|----------------------------------------------------------|
|----------------------------------------------------------|
|----------------------------------------------------------|
|----------------------------------------------------------|
|----------------------------------------------------------|
|--0-0-10-0-10-12-0-0-0-0-10-0-10-12-0-0-0-0-10-0-10-12-0--|

|------------------------|
|------------------------|
|------------------------|
|------------------------|
|------------------------|
|--0-14-0-0-15-0-0-14-0--|

|----------------------------------------------|
|----------------------------------------------|
|----------------------------------------------|
|--------12\\\------------12\\\----------------|
|--0-----12\\\------0-----12\\\----------------|
|--0-----12\\\------0-----12\\\--------x\\\\\--|

|----------------------------------------------------------|
|----------------------------------------------------------|
|----------------------------------------------------------|
|----------------------------------------------------------|
|----------------------------------------------------------|
|--0-0-10-0-10-12-0-0-0-0-10-0-10-12-0-0-0-0-10-0-10-12-0--|

|------------------------|
|------------------------|
|------------------------|
|------------------------|
|------------------------|
|--0-14-0-0-15-0-0-14-0--|

Bridge
clean
|----------------------------0-----------|
|-------------------------0-----0-----0--|
|----------------------------------0-----|
|--9-10--10--9-10-10--10-----------------|
|--0--0---0--0--0--0---0-----------------|
|----------------------------------------|

|----------------------------------------|
|----------------------------------------|
|-11----11-11----11----11-11-11-11---11--|
|--x-----x--x-----x-----x--x--x--x----x--|
|--9-----9--9-----9-----9--9--9--9----9--|
|--0-----0--0-----0-----0--0--0--0----0--|

|--------------0---------------------0--0-----|
|--------------0---------------------0--0-----|
|-11--11--11--11\9--9--9\7--7--7--7--7--7-----|
|--x---x---x-------------------------------9--|
|--9---9---9---9\7--7--7\5--5--5--5--5--5-----|
|--0---0---0---0------------------------------|

|-------------------------------------------------|
|-------------------------------------------------|
|-11---11-11-11/12--12--12/14--14--14\1111----11--|
|-------------------------------------------------|
|--9----9--9--9/10--10--10/12--12--12\9--9-----9--|
|--0----0--0--------------------------------0-----|

|---------------------0-------------0--0-----|
|---------------------0-------------0--0-----|
|-11---11-11-11\9--9--9\7--7--7--7--7--7-----|
|-----------------------------------------9--|
|--9----9--9--9\7--7--7\5--5--5--5--5--5-----|
|--0----0--0---------------------------------|

distortion
|--------------------------------------------------|
|--------------------------------------------------|
|--------------------------------------------------|
|--9-10-10-10-10-10-10-10-10-10-10-10-10-10-10-10--|
|--0--0--0--0--0--0--0--0--0--0--0--0--0--0--0--0--|
|--------------------------------------------------|

|--------------------------------------------------|
|--------------------------------------------------|
|--------------------------------------------------|
|--------------------------------------------------|
|--9--9--9--9--9--9--9--9--9--9--9--9--9--9--9--9--|
|--0--0--0--0--0--0--0--0--0--0--0--0--0--0--0--0--|

|--------------------------------------------------|
|--------------------------------------------------|
|--------------------------------------------------|
|--9-10-10-10-10-10-10-10-10-10-10-10-10-10-10-10--|
|--0--0--0--0--0--0--0--0--0--0--0--0--0--0--0--0--|
|--------------------------------------------------|

|-----------------------------------------------|
|-----------------------------------------------|
|-----------------------------------------------|
|--------------------------------------7--7--3--|
|--9--9--9--9--9--9--9--9--9--9--9--9--5--5--3--|
|--0--0--0--0--0--0--0--0--0--0--0--0-----------|

Solo
|--------------------------------------------------|
|--8---8-----8\7--7--7--7\5--5--5--5\3--3--3--3h5--|
|---------0----------------------------------------|
|--------------------------------------------------|
|--------------------------------------------------|
|--------------------------------------------------|

|-------------------------------------------------------------------|
|-------------------------------------------------------------------|
|--5----5----5--5/7--7--7--7/9--9--9--9/1010-10-10/12-12-12-12-10\--|
|--5----5----5------------------------------------------------------|
|---------------3/5--5--5--5/7--7--7--7/9--9--9--9/10-10-10-10-10\--|
|-------------------------------------------------------------------|

|--------------------------------------------|
|-------------------<7>--------------7-7-----|
|--7--7--5-----<7>-------<7>--<5>----7-7-----|
|--7--7--5--0--------------------------------|
|--5--5--3-----------------------------------|
|-----------------------------------------0--|

|---------------------------------------------------------------|
|--7--7--7/8--8--8--8/10--10--10--10/15--15--15--15~~~~~~-------|
|---------------------------------------------------------------|
|---------------------------------------------------------------|
|---------------------------------------------------------------|
|----------------------------------------------------------12\--|

Outro
|------------------------------------------------------------------|
|------------------------------------------------------------------|
|--------7\------------5--7---x---------5---7----------------------|
|--------7\------------5--7---x---------5---7----------------------|
|--------5\---------0--3--5--------0----3---5---3--0--3--0--2---0--|
|--0----------------0--------------0------------3--0--3--0--2---0--|

That's it. Enjoy, more from me later.





Comments


Popular A tabs & chords
Hi-fi Serious Bass Tabs
Monkey Kong Bass Tabs
Better Off With Him Tabs
Here We Go Again (I Love Lake Tahoe) Tabs
Hi-fi Serious Tabs
Nothing Tabs
Pacific Ocean Blue Tabs
Something's Going On 2 Tabs
Springs Tabs
T Shirt Money 1 Tabs


Song lyrics



↑ Back to top | Tablatures and chords are parodies/interpretations of the original songs. You may use it for private study, scholarship, research or language learning purposes only
© 2014 AZChords.com Contact us | Privacy policy | DMCA | Add/correct tabs | Request tabs | Top 50 tabs