>
 >
 >
Rush Song

Rush Song Guitar Tabs

A - Rush Song chords, tabs, tablatures, lyrics

Guitar lessons | Add/correct | Request | Top 50 tabs Artists:  A B C D E F G H I J K L M N O P Q R S T U V W X Y Z 0-9

Rush Song Guitar Tabs – A

CD, Sheet music, Poster

Do you like Rush Song? Share with your friends now
TabsTabs v2
Band: A

~ MAIN RIFF x 4
Gtr I w/distortion
E|-----------------------------------|
B|-----------------------------------|
G|-----------------------------------|
D|-----------------------------------|
A|-----------------------------------|
d|-0-0-10-0-10-12-0-0-0-0-10-0-10-12-|

E|-----------------------------------------|
B|-----------------------------------------|
G|-----------------------------------------|
D|-----------------------------------------|
A|-----------------------------------------|
d|-0-0-0-0-10-0-10-12-0-0-14-0-0-15-0-0-14-|


~ VERSE 1 x 2
GtrI w/distortion
E|-----------------------------------------|
B|-----------------------------------------|
G|-----------------------------------------|
D|-----------------------------------------|
A|-----------------------------------------|
d|-<3>-\\\\\\\\\\\\\\\\\-<6>---------------|

E|-----------------------------------|
B|-----------------------------------|
G|-----------------------------------|
D|-----------------------------------|
A|-----------------------------------|
d|-0-0-10-0-10-12-0-0-0-0-10-0-10-12-|

E|-----------------------------------------|
B|-----------------------------------------|
G|-----------------------------------------|
D|-----------------------------------------|
A|-----------------------------------------|
d|-0-0-0-0-10-0-10-12-0-0-14-0-0-15-0-0-14-|

For the first half, play harmonics at the 3rd fret,
but slowly move your finger up to the 6th fret,
playing over the frets inbetween.


~ PRE-CHORUS x2
Gtr I w/distortion
E|-----------------------------------------|
B|-----------------------------------------|
G|-----------------------------------------|
D|-0---12-12\\-----------------------------|
A|-0---12-12\\-----------------------------|
d|-0---12-12\\-----------------------------|

Hold the chord and slide down slowly

MAIN RIFF x 2


~ CHORUS pt 1 x2
Gtr I w/distortion
E|--------------------------------------|
B|--------------------------------------|
G|--------------------------------------|
D|-5-------------------2----------------|
A|-5-x16---------------2-x16------------|
d|-5-------------------2----------------|

Gtr II w/distortion
E|-------------------------------------|
B|-------------------------------------|
G|-------------------------------------|
D|----------------------------2-4-2----|
A|----------------------------------2--|
d|-------------------------2-----------|


~ CHORUS pt 2 x1
Gtr I w/distortion
E|--------------------------------------|
B|--------------------------------------|
G|--------------------------------------|
D|-5-------------------7----------------|
A|-5-x16---------------7-x16------------|
d|-5-------------------7----------------|

Gtr II w/distortion
E|--------------------------------------|
B|-7--8-10--7--8-10----7--8-10--7--8-10-|
G|--------------------------------------|
D|--------------------------------------|
A|--------------------------------------|
d|--------------------------------------|


~ VERSE 2
Gtr I w/wah
E|------------------|
B|------------------|
G|-12---------------| Play fast, with wah
D|-x--x32-----------|
A|-10---------------|
d|------------------|

Gtr I w/distortion
E|-----------------------------------|
B|-----------------------------------|
G|-----------------------------------|
D|-----------------------------------|
A|-----------------------------------|
d|-0-0-10-0-10-12-0-0-0-0-10-0-10-12-|

E|-----------------------------------------|
B|-----------------------------------------|
G|-----------------------------------------|
D|-----------------------------------------|
A|-----------------------------------------|
d|-0-0-0-0-10-0-10-12-0-0-14-0-0-15-0-0-14-|

VERSE 1 x 1 (play harmonics with wah)
PRE-CHORUS x 2
MAIN RIFF x 2
CHORUS pt 1 x 2


~ CHORUS pt 3 x 1
Gtr I w/distortion
E|-------------------------------------------|
B|-------------------------------------------|
G|-------------------------------------------|
D|-5-------------------7------7\---------7~ -|
A|-5-x16---------------7-x12--7\---------7~ -|
d|-5-------------------7------7\---------7~ -|

Gtr II w/distortion
E|-----------------------------------------|
B|-7--8-10--7--8-10----7--8-10--7----------|
G|-----------------------------------------|
D|---------------------------------9-10-9--|
A|-----------------------------------------|
d|-----------------------------------------|


~ BRIDGE x 2
Gtr II w/slight distortion
E|------------------------------------------|
B|---------------5--------------------------|
G|-4-5--5-4-5--5---5-4-2--------------------|
D|-----------------------4--4-4-4-4-4-4-4-4-|
A|------------------------------------------|
d|------------------------------------------|

E|---------------------------------------|
B|---------------5-----------------------|
G|-4-5--5-4-5--5---5-4-2----11\9-9-7-7-7-|
D|-----------------------4--x\-x-x-x-x-x-|
A|--------------------------9\-7-7-5-5-5-|
d|---------------------------------------|

E|-----------------------------------------|
B|---------------5-------------------------|
G|-4-5--5-4-5--5---5-4-2-11-13-14-14-14-14-|
D|-----------------------x/-x--x--x--x--x--|
A|-----------------------9/-11-12-12-12-12-|
d|-----------------------------------------|

E|---------------------------------------|
B|---------------5-----------------------|
G|-4-5--5-4-5--5---5-4-2----11\9-9-7-7-7-|
D|-----------------------4--x\-x-x-x-x-x-|
A|--------------------------9\-7-7-5-5-5-|
d|---------------------------------------|

Then x 2
Gtr I w/Distortion
E|---------------------|
B|---------------------|
G|---------------------| First time play chord slowly, then speed up
D|-9-10--10-----12-----| once palm mute is off
A|-9-10--10-x14-12-x16-|
d|-9-10--10-----12-----|
         PM


~ SOLO x 1
Gtr Iw/distortion
E|---------------------|--------------------|
B|---------------------|--------------------|
G|---------------------|--------------------|
D|-12-12-10~ --10------|-9-9-10~ --10-------|
A|-12-12-10~ --10-x16--|-9-9-10~ --10-x16---|
d|-12-12-10~ --10------|-9-9-10~ --10-------|

E|---------------------|--------------------|
B|---------------------|--------------------|
G|---------------------|--------------------|
D|-12-12-10~ --10------|-9-9-12~ --12-------|
A|-12-12-10~ --10-x16--|-9-9-12~ --12-x16---|
d|-12-12-10~ --10------|-9-9-12~ --12-------|

Gtr II w/Wah
E|-------------------------------------------------|
B|-------------------------------------------------|
G|-12-12-12-12--12-11-11-11-11-9-9-9-9-7-7-7-7-5-5-|
D|-x--x--x--x---x--x--x--x--x--x-x-x-x-x-x-x-x-x-x-|
A|-10-10-10-10--10-9--9--9--9--7-7-7-7-5-5-5-5-3-3-|
d|-------------------------------------------------|

E|-------------------------------------------14----15^16-|
B|-------------------------------------15-15----15-------|
G|-5-7-7-7-7-9-9-9-9-11-11-11-11-12~ --------------------|
D|-x-x-x-x-x-x-x-x-x-x--x--x--x--x-~ --------------------|
A|-3-5-5-5-5-7-7-7-7-9--9--9--9--10~ --------------------|
d|-------------------------------------------------------|

E|------------------------------------|
B|------------------------------------|
G|-7-7-7-11-11-11-14-14-14-19-19-19~ -|
D|-x-x-x-x--x--x--x--x--x--x--x--x-~ -|
A|-5-5-5-9--9--9--12-12-12-17-17-17~ -|
d|------------------------------------|

CHORUS pt 1 X 3
CHORUS pt 2 x 1


~ OUTRO x4
GTR I w/distortion
E|-----------------------------------------|
B|-----------------------------------------|
G|-----------------------------------------|
D|---12\---10-12---12---14-15-14-----------|
A|---12\---10-12---12---14-15-14-----------|
d|-0-12\-0-10-12-0-12-0-14-15-14-----------|


~ END ON
Gtr I w/distortion
E|-------|
B|-------|
G|-------|
D|--12~ -|
A|--12~ -|
d|--12~ -|





Comments


Popular A tabs & chords
Going Down Bass Tabs
Nothing 2 Bass Tabs
Starbucks 2 Bass Tabs
Watch Out Bass Tabs
Going Down Tabs
Going Down 1 Tabs
Starbucks Tabs
T Shirt Money Tabs
The Distance Tabs
You Know It Intro Tabs


Song lyrics



↑ Back to top | Tablatures and chords are parodies/interpretations of the original songs. You may use it for private study, scholarship, research or language learning purposes only
© 2014 AZChords.com Contact us | Privacy policy | DMCA | Add/correct tabs | Request tabs | Top 50 tabs