» »

A, Monkey Kong Tabs (ver.2)

Artists:  A B C D E F G H I J K L M N O P Q R S T U V W X Y Z # 

Monkey Kong Tabs (ver.2)

A Tabs
Rating:
3/5 (1 vote)
Monkey Kong lessons Tabs too difficult? Try these video lessons and learn fast
                A
A vs MOnkey KOng
monkey kong


chunky dist all through, ace if u can get some feedback,
for goodness, use random pick scr*pes too.
and plenty of harmonics!!!!!


okey dokey here we go.

ebgdaD (trust me its a hell of a lot easier!!)
and for once ive given the number of reps!!

this is my way, and it sounds damn good!!!
this my friends is the intro and verse of the song.
try and get some feedback
to start!!! LETS ROCK!!
 |-----------------------------------------------------------------|
 |-----------------------------------------------------------------|
 |----9--9--------------------------9-9----------------------------|
 |----9--9----10-10---7-7---10-10---9-9--10-10--11-11-11--12-12-12-|
 |----7--7----10-10---7-7---10-10---7-7--10-10--11-11-11--12-12-12-|
 |------------10-10---7-7---10-10--------10-10--11-11-11--12-12-12-|
 repeat this all thru verse and stuff
then in the prechorus, the keyboard does a lot,
and in most tabs its just chords
for guitar. but ive done the best of both
worlds and done noted guitar.  good eh?
 |------------------------------------------------------------------------------------------|
 |------------------------------------------------------------------------------------------|
 |---------4----------4--------------4--------------4---------------------------------------|
 |------4----4------4---4----------2---2----------4---4---------------4---------------4-----|
 |---2-----------2-------------2----------------2-------------------4-----4--------4------4-|
 |----------------------------------------------------------------4--------------4----------|
and theeeennn!!
 |-----------------------------------|
 |-----------------------------------|
 |---9-------------11----------------|
 |---9---X 14------11--X-14----------|
 |---7-------------9-----------------|
 |-----------------------------------|
now listen here me bucko's im so damn nice
that im gonna tab the keys bit!!

 |-----------------------------|
 |-----13b14--12-10-10-12-10---|
 |-----------------------------|
 |-----------------------------|
 |-----------------------------|
 |-----------------------------|
just repeat that


EVERY SECOND EVERY DAY!!
 |--------------------------------------------------|
 |--------------------------------------------------|
 |--4------------2------------6-----------7---------|
 |--4---X 16-----2--X16-------6--X16------7---X16---|
 |--2------------0------------4-----------5---------|
 |--------------------------------------------------|

all of that over again once, then the scary
digi voice is talking a lot, i just
go up and down the string muting it
and picking there for making
harmonics.  yAY!!!
then how high can u try, use the prechorus, but this time, use each
note build the chords.  ill tab the chords anyway
tho.play chords kinda
slow this time except for last 16 work
out timin anyway, ur clever aintcha??
 |-------------------------------------------------|
 |-------------------------------------------------|
 |--4--------4-----------------9--------11---------|
 |--4--X8----2--X8----4--------9--X8----11-----X16-|
 |--2--------2--------4---X8---7--------9----------|
 |--------------------4----------------------------|
and that me buckos is all.  and comments or non comments
pleez send to me addy at the bottom.  byeaa!!


By fretboardmaster aka charlie
            

comments powered by Disqus
↑ Back to top | A Tabs for Monkey Kong. Lyrics for acoustic guitar and electric guitar. Tablatures and chords are parodies/interpretations of the original songs. You may use it for private study, scholarship, research or language learning purposes only