» »

A, Monkey Kong Bass tabs (ver.1)

Artists:  A B C D E F G H I J K L M N O P Q R S T U V W X Y Z # 

Monkey Kong Bass tabs (ver.1)

A Tabs
 Rating:
3.8/5 (5 votes)
Monkey Kong lessons Tabs too difficult? Try these video lessons and learn fast
                

Intro/Verse:
G-------------------------------------------------|
D-------------------------------------------------|
A-7--7--3--3--------3--3--7--7--3--3--4--4--5--5--|
E-------------5--5--------------------------------|

Prechorus:
G---------------------------------------------------------------|
D---------------------------------------------------------------|
A---------------------------------------------------------------|
E-7-7-7-7-7-7-7-7-5-5-5-5-5-5-5-2-2-2-2-2-2-2-2-0-0-0-0-2-2-2-2-|

Chorus:
G---------------------------------|
D---------------------------------|
A-----------------4-4-4-4-5-5-5-5-|
E-7-7-7-7-5-5-5-5-----------------|

Bit Before Verse:
G---------------------------------|
D---------------------------------|
A-5-5-5-5-5-5-5-5/----------------|
E---------------------------------|

Bridge:
G---------------------------------------------------------------|
D---------------------------------------------------------------|
A---------------------------------------------------------------|
E-7-7-7-7-7-7-7-7-9-9-9-9-9-9-9-2-2-2-2-2-2-2-2-0-0-0-0-2-2-2-2-|

Order is:
Intro/Verse  x 4
Prechorus    x 1
Chorus       x 2
Bit b4 Verse x 1
Intro\Verse  x 4
Prechorus    x 1
Chorus       x 2
Bit B4 Verse x 1
Brief Tacet
Bridge       x 1
Intro/Verse  x 2
Chorus       x 4
Bit b4 Verse x 1
Intro/Verse  x 2
And slide off that last note to finish.
            
Submit corrections

comments powered by Disqus
↑ Back to top | A Bass for Monkey Kong. Lyrics for acoustic guitar and electric guitar. Tablatures and chords are parodies/interpretations of the original songs. You may use it for private study, scholarship, research or language learning purposes only