» »

A, Going Down Tabs (ver.2)

Artists:  A B C D E F G H I J K L M N O P Q R S T U V W X Y Z # 

Going Down Tabs (ver.2)

A Tabs
 Rating:
3.8/5 (5 votes)
Going Down lessons Tabs too difficult? Try these video lessons and learn fast
                -------------------------------------------------------------------------------
                                Going Down - A
-------------------------------------------------------------------------------

I've looked at how it's played live, so I think the intro/verse is perfect, I think this 
a pretty good tab, see what you think!
Enjoi... :D

Tuning: Standard (EADGBe)

Intro & Verse
e|---------------------------------------------------------------------------|
B|---------------------------------------------------------------------------|
G|11-------------11--11------------------------------------------------------|
D|12-------------12--12------------------------------------------------------|
A|14-------------14--14------------------------------------------------------|
E|------12-10-12-----------12-10-12------------------------------------------|

Chorus
e|---------------------------------------------------------------------------|
B|---------------------------------------------------------------------------|
G|6--6-6-6-6-6-6------------------8-8-8-8-8-8-8-8--9-9-9-9-9-9-9-9-----------|
D|7--7-7-7-7-7-7--9--9-9-9-9-9-9--9-9-9-9-9-9-9-9--9-9-9-9-9-9-9-9-----------|
A|7--7-7-7-7-7-7--9--9-9-9-9-9-9--9-9-9-9-9-9-9-9--7-7-7-7-7-7-7-7-----------|
E|5--5-5-5-5-5-5--7--7-7-7-7-7-7--7-7-7-7-7-7-7-7--0-0-0-0-0-0-0-0---x2------|

Verse
Chorus

Bridge
e||--------------------------------------------------------------------------|
B||o-------------------------------------------------------------------------|
G||--7-7-7-7-7-7-7-7-5-5-5-5-5-5-5-5-----------------------------------------|
D||--7-7-7-7-7-7-7-7-5-5-5-5-5-5-5-5-7-7-7-7-7-7-7-7-7-7-7-7-7-7-7-7---------|
A||o-5-5-5-5-5-5-5-5-3-3-3-3-3-3-3-3-7-7-7-7-7-7-7-7-7-7-7-7-7-7-7-7---------|
E||----------------------------------5-5-5-5-5-5-5-5-5-5-5-5-5-5-5-5---------|

                  1.--------------------¬     2.-------------------------------|
e|-----------------------------------------||----------------------------------|
B|----------------------------------------o||----------------------------------|
G|-----------------------------------------||----------------------------------|
D|8-8-8-8-8-8-8-8-10-10-10-10-10-10-10-10--||--10------------------------------|
A|8-8-8-8-8-8-8-8-10-10-10-10-10-10-10-10-o||--10-x16--------------------------|
E|6-6-6-6-6-6-6-6--8--8--8--8--8--8--8--8--||---8------------------------------|


e|-------------------------------|
B|-------------------------------|
G|--11---------------------------|
D|--12---------------------------|
A|--14---------------------------|
E|-------------------------------|
    |----------------------------|

Bass & Drums only

Then
e|---------------------------------------------------------------------------|
B|---------------------------------------------------------------------------|
G|---11-----------11-----------11-----------11-12--------11------------------|
D|------14-----------14-----------14------------------------14---------------|
A|---------14-----------14-----------14------------------------14------------|
E|12-----------12-----------12-----------12-----------12---------------------|

e|---------------------------------------------------------------------------|
B|---------------------------------------------------------------------------|
G|---11-----------11-----------11--------------------------------------------|
D|------14-----------14------------------------------------------------------|
A|---------14-----------14---------------------------------------------------|
E|12-----------12-----------12-----------------------------------------------|

Chorus

"Going Down..."
e|-----------------------------------------------------|
B|-----------------------------------------------------|
G|12------9------4-------5-------------9---------------|
D|-x--x8--x--x8--x--x16--x--x8--7------x--x16----------|
A|10------7------2-------3------x--x8--7---------------|
E|------------------------------5----------------x2----|

Verse through to the end.

End On
e|-------------------------------|
B|-------------------------------|
G|--11---------------------------|
D|--12---------------------------|
A|--14---------------------------|
E|--(0)--------------------------|
    |----------------------------|

How easy is that?!


| ||o o||
| ||   ||  Repeat
| ||o o||
|
| 1.-¬ Play first time
| 2.-¬ play on second time
| x  Mute note
| |--- Hold
===============================================================================
            
Submit corrections

comments powered by Disqus
↑ Back to top | A Tabs for Going Down. Lyrics for acoustic guitar and electric guitar. Tablatures and chords are parodies/interpretations of the original songs. You may use it for private study, scholarship, research or language learning purposes only