» »

A, Going Down Tabs (ver.1)

Artists:  A B C D E F G H I J K L M N O P Q R S T U V W X Y Z # 

Going Down Tabs (ver.1)

A Tabs
 Rating:
4/5 (4 votes)
Going Down lessons Tabs too difficult? Try these video lessons and learn fast
1
                --------------------------------------------------------------
A – Going Down
--------------------------------------------------------------


Tuning: Standard (E,A,D,G,B,e)





Intro/Verse
Riff 1:

(slightly distorted)
e|-2------------3-| 
B|-3------------2-| repeat
G|-0------------0-| over
D|(0)-----2-0-2(0)| and
A|--------*-*-*---| over!
E|----------------|
	  




The Bass Guitar plays this (Verse):
G|---------------------------------|
D|-5555555522222222----------------|
A|-----------------2222222222222222|
E|---------------------------------|

G|---------------------------------|
D|---------------------------------|
A|33333333000000007777777777777777-|
E|---------------------------------|

Second half of verse guitar II plays this:
e|-----------------------------------------------------------|
B|-----------------------------------------------------------|
G|--11-9---11-9---11-9---11-9---11-9---11-9---11-9---11-12---|
D|-----------------------------------------------------------|
A|-----------------------------------------------------------|
E|-----------------------------------------------------------| 

e|-----------------------------------------------------------|
B|-----------------------------------------------------------|
G|--11-12--11-12--11-12--11-12--11-9---11-9---11-9---11-9----|
D|-----------------------------------------------------------|
A|-----------------------------------------------------------|
E|-----------------------------------------------------------|



Chorus:                               x2
e|--------------------------------------|
B|--------------------------------------|
G|-----------?-------------------9------|
D|--7--------?---------9---------9------|
A|--7--------?---------9---------7------|
E|--5--------?---------7----------------|




Middle Part:						  x2
e|----------------------------------------------------------|
B|----------------------------------------------------------|
G|-7777777755555555-----------------------------------------|
D|-77777777555555557777777777777777888888881010101010101010-| 
A|-55555555333333337777777777777777888888881010101010101010-|
E|-----------------5555555555555555666666668-8-8-8-8-8-8-8--|







Only Bass guitar is playing (Verse x1)
(clean)		     X3					    x3
e|---------0----------|---------------|---------0------------|
B|--8-7---------0-----|--8-7---8------|--8-7-----------0-----|
G|--------------------|---------------|----------------------|
D|--------------------|---------------|----------------------|
A|--------------------|---------------|----------------------|
E|--------------------|---------------|----------------------|




Verse (distorted)
e|--------------------------------------------------------|
B|--------------------------------------------------------|
G|-1212121212121212999999991111119-7-91111111111-9-7-9-11-|
D|-x-x--x-x-x-x-x-xxxxxxxxxx-x-x-------x-x-x-x-x----------|
A|-1010101010101010777777779-9-9-------9-9-9-9-9----------|
E|--------------------------------------------------------|

					  X2
e|------------------------------------------|
B|------------------------------------------|
G|-------------------------9999999999999999-|
D|-101010101010101077777777xxxxxxxxxxxxxxxx-|
A|--x-x-x-x-x-x-x-xxxxxxxxx7777777777777777-|
E|--8-8-8-8-8-8-8-855555555-----------------|






Song Order

Intro
Verse I
Chorus
Verse II
Chorus
Middle Part
Verse (only Bass, then clean part)
Chorus
Verse (distorted)
Verse




| /  slide up
| \  slide down
| *  palm-muted
| h  hammer-on
| p  pull-off
| ~  vibrato
| +  harmonic
| x  Mute note
===========================================================================
            
Submit corrections

comments powered by Disqus
↑ Back to top | A Tabs for Going Down. Lyrics for acoustic guitar and electric guitar. 1 Tablatures and chords are parodies/interpretations of the original songs. You may use it for private study, scholarship, research or language learning purposes only