» » »

Slow Motion Riot Tabs (ver.2)

Artists:  A B C D E F G H I J K L M N O P Q R S T U V W X Y Z # 

Slow Motion Riot Tabs (ver.2)

98 Mute
Rating:
0/5 (0 votes)

Hard to play? Try these video lessons and learn fast.
                HeterophobicTWAT

Intro:
e|-----------------------------------------------------------------------------|
B|-----------------------------------------------------------------------------|
G|-44-4444-44-4444-77-7777-77-7777-99-9999-99-9999-1212-12121212-1212-12121212-|
D|-44-4444-44-4444-77-7777-77-7777-99-9999-99-9999-1212-12121212-1212-12121212-|
A|-22-2222-22-2222-55-5555-55-5555-77-7777-77-7777-1010-10101010-1010-10101010-|
E|-----------------------------------------------------------------------------|
   P.M.... .. .... .. .... .. .... .. .... .. .... .... ........ .... ........ 

e|---------------------------------------------------------------|
B|---------------------------------------------------------------|
G|-44-4444-44-4444-77-7777-77-7777-99-9999-99-9999-12121212-1111-|
D|-44-4444-44-4444-77-7777-77-7777-99-9999-99-9999-12121212-1111-|
A|-22-2222-22-2222-55-5555-55-5555-77-7777-77-7777-10101010-9-9--|
E|---------------------------------------------------------------|
   P.M.... .. .... .. .... .. .... .. .... .. ....                           

Pre Verse:
e|--------------------------------------------|
b|--------------------------------------------|
G|-44-2-444-77-6-777-99-7-999-1212-11-1212-11-|
D|-44-2-444-77-6-777-99-7-999-1212-11-1212-11-|
A|-22-0-222-55-4-555-77-5-777-1010-9--1010-9--|
E|--------------------------------------------|

e|----------------------------------------|
b|----------------------------------------|
G|-44-2-444-77-6-777-99-7-999-\-----------|
D|-44-2-444-77-6-777-99-7-999-\-Pickslide-|
A|-22-0-222-55-4-555-77-5-777-\-----------|
E|----------------------------------------|

Verse:
e|-----------------------------------------------|
B|-----------------------------------------------|
G|-4-44-4-44-7-77-7-77-9-99-9-99-12-1212-12-1111-|
D|-4-44-4-44-7-77-7-77-9-99-9-99-12-1212-12-1111-|(x3)
A|-2-22-2-22-5-55-5-55-7-77-7-77-10-1010-10-9-9--|
E|-----------------------------------------------|

e|-----------------------------------------------|
B|-----------------------------------------------|
G|-4-44-4-44-7-77-7-77-9-99-9-99-12-1212-14-1414-|
D|-4-44-4-44-7-77-7-77-9-99-9-99-12-1212-14-1414-|(x1)
A|-2-22-2-22-5-55-5-55-7-77-7-77-10-1010-12-1212-|
E|-----------------------------------------------|

Chorus(Gtr1):
e|-----------------------------------------------|
B|-----------------------------------------------|
G|-7-77-7-77-11-1111-11-1111---------------------|
D|-7-77-7-77-11-1111-11-1111-9-99-9-99-9-99-9-99-|
A|-5-55-5-55-9--9-9--9--9-9--9-99-9-99-9-99-9-99-|
E|---------------------------7-77-7-77-7-77-7-77-|

(Gtr2)
e|-----------------------------------------------------------|
b|---------------------------12-1212-12-1212-12-1212-12-1212-|
G|-7-77-7-77-11-1111-11-1111---------------------------------|
D|-----------------------------------------------------------|
A|-----------------------------------------------------------|
E|-----------------------------------------------------------|

(Gtr1)
e|------------------------------------------------|
B|------------------------------------------------|
G|-7-77-7-77-11-1111-11-1111-----------16-1616-16-|
D|-7-77-7-77-11-1111-11-1111-9-99-9-99-16-1616-16-|
A|-5-55-5-55-9--9-9--9--9-9--9-99-9-99-14-1414-14-|
E|---------------------------7-77-7-77------------|

(Gtr2)
e|------------------------------|
b|---------------------------12-|
G|-7-77-7-77-11-1111-11-1111----|
D|------------------------------|
A|------------------------------|
E|------------------------------|

(Gtr1)
e|-----------------------------------------------|
B|-----------------------------------------------|
G|-7-77-7-77-11-1111-11-1111---------------------|
D|-7-77-7-77-11-1111-11-1111-9-99-9-99-5-55-5-55-|
A|-5-55-5-55-9--9-9--9--9-9--9-99-9-99-5-55-5-55-|
E|---------------------------7-77-7-77-3-33-3-33-|

(Gtr2)
e|--------------------------------------------------------|
B|-----------------8--------------------------10----------|
G|-11-1111-11-1111---11-9-11--11-1111-11-1111----12-11-12-|
D|--------------------------------------------------------|
A|--------------------------------------------------------|
E|--------------------------------------------------------|

e|-----------------------------------------------|
B|-----------------------------------------------|
G|-7-77-7-77-11-1111-11-1111---------------------|
D|-7-77-7-77-11-1111-11-1111-9-99-9-99-9-99-9-99-|
A|-5-55-5-55-9--9-9--9--9-9--9-99-9-99-9-99-9-99-|
E|---------------------------7-77-7-77-7-77-7-77-|

Post Chorus:
e|---------------------------|
B|-----------------8---------|
G|-11-1111-11-1111---11-9-11-|
D|---------------------------|
A|---------------------------|
E|---------------------------|

Intro
Verse
Chorus

Bridge:
e|--------------------------------|
B|--------------------------------|
G|-4.----------4.-\---------------|
D|-4.----------4.-\-Pickslide-----|
A|-2.----------2.-\---------------|
E|--------------------------------|

e|-----------------------------------------------------------------------------|
B|-----------------------------------------------------------------------------|
G|-44-4444-44-4444-77-7777-77-7777-99-9999-99-9999-1212-12121212-1212-12121212-|
D|-44-4444-44-4444-77-7777-77-7777-99-9999-99-9999-1212-12121212-1212-12121212-|
A|-22-2222-22-2222-55-5555-55-5555-77-7777-77-7777-1010-10101010-1010-10101010-|
E|-----------------------------------------------------------------------------|
   P.M.... .. .... .. .... .. .... .. .... .. .... .... ........ .... ........ 

e|---------------------------------------------------------------|
B|---------------------------------------------------------------|
G|-44-4444-44-4444-77-7777-77-7777-99-9999-99-9999-12121212-1111-|
D|-44-4444-44-4444-77-7777-77-7777-99-9999-99-9999-12121212-1111-|
A|-22-2222-22-2222-55-5555-55-5555-77-7777-77-7777-10101010-9-9--|
E|---------------------------------------------------------------|
   P.M.... .. .... .. .... .. .... .. .... .. ....                   

Chorus
            
Hard to play? Try these video lessons and learn fast. | Correct




comments powered by Disqus
↑ Back to top | Tablatures and chords are parodies/interpretations of the original songs. You may use it for private study, scholarship, research or language learning purposes only