» » »

Slow Motion Riot Tabs (ver.1)

Artists:  A B C D E F G H I J K L M N O P Q R S T U V W X Y Z # 

Slow Motion Riot Tabs (ver.1)

98 Mute
Rating:
0/5 (0 votes)

Hard to play? Try these video lessons and learn fast.
                . = palm mute

			Intro
e|--------------------------------------------------------|
B|--------------------------------------------------------|
G|--------------------------------------------------------|
D|-44-444--77-777--99-999--1212-121212--------------------|
A|-22-222--55-555--77-777--1010-101010--------------------|
E|--------------------------------------------------------|
   .. ...  .. ...  .. ...  .... ......                             

			Verse
e|--------------------------------------------------------|
B|--------------------------------------------------------|
G|-44444-77777-99999-121212121211-------------------------|
D|-44444-77777-99999-121212121211-------------------------|
A|-22222-55555-77777-1010101010-9-------------------------|
E|--------------------------------------------------------|

			Chorus
e|--------------------------------------------------------------------|
B|--------------------------------------------------------------------|
G|-77777-1111111111------------77777-1111111111-----------------------|
D|-77777-1111111111-99999-(x2)-77777-1111111111-99999-1212121212------|
A|-55555--9-9-9-9-9-99999------55555--9-9-9-9-9-99999-1010101010-(x2)-|
E|------------------77777-----------------------77777-----------------|

			Fill
e|--------------------------------------------------------|
B|------------------10------------------------------------|
G|--11-1111-11-1111----12-9-11----------------------------|
D|--------------------------------------------------------|
A|--------------------------------------------------------|
E|--------------------------------------------------------|

			Pre Bridge
e|--------------------------------------------------------|
B|--------------------------------------------------------|
G|-4-----------------------4------------------------------|
D|-4-(let ring)------------4-(let ring)-------------------|
A|-2-----------------------2---------------(pick scratch)-|
E|--------------------------------------------------------|

			Bridge part 1
e|--------------------------------------------------------|
B|--------------------------------------------------------|
G|--------------------------------------------------------|
D|-44-444--77-777--99-999--1212-121212--------------------|
A|-22-222--55-555--77-777--1010-101010--------------------|
E|--------------------------------------------------------|
   .. ...  .. ...  .. ...  .... ......                    

			Bridge part 2
e|--------------------------------------------------------|
B|--------------------------------------------------------|
G|-44444-77777-99999-121212121211-------------------------|
D|-44444-77777-99999-121212121211-(play fill in backround)|
A|-22222-55555-77777-1010101010-9-------------------------|
E|--------------------------------------------------------|

Order

Intro        x2
Verse        x2
pick scratch x1
Verse        x4
Chorus       x1
Fill         x1
Intro        x1
Verse        x4
Chorus       x1
Pre Bridge   x1
Bridge Part1 x2
Bridge part2 x6
            
Hard to play? Try these video lessons and learn fast. | Correct




comments powered by Disqus
↑ Back to top | Tablatures and chords are parodies/interpretations of the original songs. You may use it for private study, scholarship, research or language learning purposes only