» » »

6 Voltios, Nunca Te Quise Fallar Bass tabs (ver.1)

Artists:  A B C D E F G H I J K L M N O P Q R S T U V W X Y Z # 

Nunca Te Quise Fallar Bass tabs (ver.1)

6 Voltios Tabs
 Rating:
4/5 (4 votes)
Nunca Te Quise Fallar lessons Tabs too difficult? Try these video lessons and learn fast
1
                Intro:                  Nunca entendiste...
----------------------------------------------------
------3-6----------3-6------------------------------
-4--4------4-4-4-4------------4--------7-6-4--------
-------------------------5--5---5---5-5-------------

----------------------------------------------------
--------1------------1-----------2-------6-5-3-2----
---2--2---2--2-2-2-2---2--4-4--4---4----------------
----------------------------------------------------

No siempre sere un fracaso...
----------------------------------------------------
----------------------------------------------------
-4-0-2-4----4-0-2-4----0-2---4-2----0-2---4-2-------
---------------------------4------------4-----------

Perdoname porfavor...
-----------------------------------------
-----------------------------------------
-0-2-4-4-2-0----0-2-4-4-2-0--------------
-----------------------------------------

Nunca entendiste...
-4-4-4-4-4-4-4-4--0-0-0-0-0-0-0-0--2-2-2-2-2-2-2-2--4-4-4-4-4-4-4-4-2-2-4-4-

Solo (Intro)
----------------
            
Submit corrections

comments powered by Disqus
↑ Back to top | 6 Voltios Bass for Nunca Te Quise Fallar. Lyrics for acoustic guitar and electric guitar. 1 Tablatures and chords are parodies/interpretations of the original songs. You may use it for private study, scholarship, research or language learning purposes only