» » »

6 Voltios, Nunca Te Quise Fallar Tabs (ver.1)

Artists:  A B C D E F G H I J K L M N O P Q R S T U V W X Y Z # 

Nunca Te Quise Fallar Tabs (ver.1)

6 Voltios Tabs
 Rating:
4/5 (4 votes)
Nunca Te Quise Fallar lessons Tabs too difficult? Try these video lessons and learn fast
                INTRO

|-9-----------|
|---9---------|
|-----11-9----|
|----------11-|
|-------------|
|-------------|

VERSO

|-9--9--9--9--5-5-5-5--7-7-7-7--9--9---7-7--|
|-9--9--9--9--5-5-5-5--7-7-7-7--9--9---7-7--|
|-9--9--9--9--6-6-6-6--8-8-8-8--9--9---8-8--|x2
|-11-11-11-11-7-7-7-7--9-9-9-9--11-11--9-9--|
|-------------------------------------------|
|-------------------------------------------|

CORO

|------------------------------------------------------|
|------------------------------------------------------|
|-6-6-6-6-6-6--2-2-2-2-2-2--4-4-4-4-4-4--6-6-6-6-6-6---|x2
|-6-6-6-6-6-6--2-2-2-2-2-2--4-4-4-4-4-4--6-6-6-6-6-6---|
|-4-4-4-4-4-4--0-0-0-0-0-0--2-2-2-2-2-2--4-4-4-4-4-4---|
|------------------------------------------------------|

|---------------------------------------------------------|
|---------------------------------------------------------|
|-2-2-2-2-2-2--4-4-4-4-4-4---------------6-6-6-6-4-4-4-4--|
|-2-2-2-2-2-2--4-4-4-4-4-4--6-6-6-6-6-6--6-6-6-6-4-4-4-4--|x2
|-0-0-0-0-0-0--2-2-2-2-2-2--6-6-6-6-6-6--4-4-4-4-2-2-2-2--|
|---------------------------4-4-4-4-4-4-------------------|

|---------------------------------------------------------|
|---------------------------------------------------------|
|-2-2-2-2-2-2--4-4-4-4-4-4--6-6-6-6-6-6--6-6-6-6-4-4-4-4--|
|-2-2-2-2-2-2--4-4-4-4-4-4--6-6-6-6-6-6--6-6-6-6-4-4-4-4--|x3
|-0-0-0-0-0-0--2-2-2-2-2-2--4-4-4-4-4-4--4-4-4-4-2-2-2-2--|
|---------------------------------------------------------|

|----------------------------------------|
|----------------------------------------|
|-2-2-2-2-2-2--4-4-4-4-4-4--6-6-6-6-6-6--|
|-2-2-2-2-2-2--4-4-4-4-4-4--6-6-6-6-6-6--|
|-0-0-0-0-0-0--2-2-2-2-2-2--4-4-4-4-4-4--|
|----------------------------------------|
  
VERSO

|-9--9--9--9--9--9--9---5-5-5-5-5-5-5--7-7-7-7-7-7-7--9--9--7-7--|
|-9--9--9--9--9--9--9---5-5-5-5-5-5-5--7-7-7-7-7-7-7--9--9--7-7--|
|-9--9--9--9--9--9--9---6-6-6-6-6-6-6--8-8-8-8-8-8-8--9--9--8-8--|x2
|-11-11-11-11-11-11-11--7-7-7-7-7-7-6--9-9-9-9-9-9-9--11-11-9-9--|
|----------------------------------------------------------------|
|----------------------------------------------------------------|

CORO

|------------------------------------------------------|
|------------------------------------------------------|
|-6-6-6-6-6-6--2-2-2-2-2-2--4-4-4-4-4-4--6-6-6-6-6-6---|x2
|-6-6-6-6-6-6--2-2-2-2-2-2--4-4-4-4-4-4--6-6-6-6-6-6---|
|-4-4-4-4-4-4--0-0-0-0-0-0--2-2-2-2-2-2--4-4-4-4-4-4---|
|------------------------------------------------------|

|---------------------------------------------------------|
|---------------------------------------------------------|
|-2-2-2-2-2-2--4-4-4-4-4-4---------------6-6-6-6-4-4-4-4--|
|-2-2-2-2-2-2--4-4-4-4-4-4--6-6-6-6-6-6--6-6-6-6-4-4-4-4--|x2
|-0-0-0-0-0-0--2-2-2-2-2-2--6-6-6-6-6-6--4-4-4-4-2-2-2-2--|
|---------------------------4-4-4-4-4-4-------------------|

|---------------------------------------------------------|
|---------------------------------------------------------|
|-2-2-2-2-2-2--4-4-4-4-4-4--6-6-6-6-6-6--6-6-6-6-4-4-4-4--|
|-2-2-2-2-2-2--4-4-4-4-4-4--6-6-6-6-6-6--6-6-6-6-4-4-4-4--|x3
|-0-0-0-0-0-0--2-2-2-2-2-2--4-4-4-4-4-4--4-4-4-4-2-2-2-2--|
|---------------------------------------------------------|

|----------------------------------------|
|----------------------------------------|
|-2-2-2-2-2-2--4-4-4-4-4-4--6-6-6-6-6-6--|
|-2-2-2-2-2-2--4-4-4-4-4-4--6-6-6-6-6-6--|
|-0-0-0-0-0-0--2-2-2-2-2-2--4-4-4-4-4-4--|
|----------------------------------------|

SOLO

|-------9----------------------------------------------------------|
|-----9---9-12^-12^-9---------------9----9-------------------------|
|-11^-----------------11-9----9--11^--11^--9----9-11-9-------------|
|--------------------------11----------------11--------------------|
|------------------------------------------------------------------|
|------------------------------------------------------------------|

|-----12-12-14^-14^-14^-14^----------------------------------------|
|-13^-----------------------14-12----------------------------------|
|---------------------------------13-11-9--------------------------|
|-----------------------------------------11-9---------------------|
|----------------------------------------------11-10-9-7-9-7-------|
|------------------------------------------------------------9-7-9-|

|----------------------9---9----------------9---9------------------|
|----9---------------9-12^---9--------------12^---9----------------|
|-11^--11-9----9-11^-----------11-9----9-11---------11-9----9------|
|-----------11----------------------11-------------------11--------|
|------------------------------------------------------------------|
|------------------------------------------------------------------|

|-------------------9----------------------------------------------|
|-9---9---9---9---9---12-9-----------------------------------------|
|-11^-11^-11^-11^----------11-9--------------9---------------------|
|-------------------------------11-9-11~--11---11-9----------------|
|---------------------------------------------------11-10-9-7------|
|-------------------------------------------------------------9-7--|

 CORO

|---------------------------------------------------------|
|---------------------------------------------------------|
|-2-2-2-2-2-2--4-4-4-4-4-4--6-6-6-6-6-6--6-6-6-6-4-4-4-4--|
|-2-2-2-2-2-2--4-4-4-4-4-4--6-6-6-6-6-6--6-6-6-6-4-4-4-4--|x3
|-0-0-0-0-0-0--2-2-2-2-2-2--4-4-4-4-4-4--4-4-4-4-2-2-2-2--|
|---------------------------------------------------------|

|----------------------------------------|
|----------------------------------------|
|-2-2-2-2-2-2--4-4-4-4-4-4--6-6-6-6-6-6--|
|-2-2-2-2-2-2--4-4-4-4-4-4--6-6-6-6-6-6--|
|-0-0-0-0-0-0--2-2-2-2-2-2--4-4-4-4-4-4--|
|----------------------------------------|

OUTRO

|----------------------------------------|
|----------------------------------------|
|-2-2-2-2-2-2--4-4-4-4-4-4--6-6-6-6-6-6--|
|-2-2-2-2-2-2--4-4-4-4-4-4--6-6-6-6-6-6--|x2
|-0-0-0-0-0-0--2-2-2-2-2-2--4-4-4-4-4-4--|
|----------------------------------------|
            
Submit corrections

comments powered by Disqus
↑ Back to top | 6 Voltios Tabs for Nunca Te Quise Fallar. Lyrics for acoustic guitar and electric guitar. Tablatures and chords are parodies/interpretations of the original songs. You may use it for private study, scholarship, research or language learning purposes only