» » »

6 Voltios, Lej Tabs (ver.2)

Artists:  A B C D E F G H I J K L M N O P Q R S T U V W X Y Z # 

Lej Tabs (ver.2)

6 Voltios Tabs
 Rating:
4/5 (4 votes)
Lej lessons Tabs too difficult? Try these video lessons and learn fast
1
                este es el intro y los verdaderos acordes


E|---------------------------------------------------------------------------------------------
B|---------------------------------------------------------------------------------------------
D|---------------------------------------------------------------------------------------------(x2)
G|-0000000--222--0000--22--4444444--7777--555--4-5----------555--44--2-2---------555--44-0-2-0--
A|-------------------------------------------------22222222------------00000000----------------
E|---------------------------------------------------------------------------------------------
 
ya estos son los acordes verdaderos de la cancion ya este tab esta 100% correcto asi k no jodan

D5-F#5-B5-G5-A5(escuchen el disco para saber los tiempos)

D5              F#5          B5                G5        A5      
estoy Cansado tan aburrido ya no me importas ya no kiero estar aki
D5            F#5               B5       G5-A5 
creiste me salve una vez mas y esta vez fue suficiente para mi

Coro
D5                      F#5      B5                  G5       A5
Me largo no me importa tu vida Me llega al pincho estare lejos de aki
D5                 F#5             B5                 G5-A5        
en mis ojos ahora solo hay odio y recor por tu culpa por tu culpa


D5-F#5-B5-G5-A5(escuchen el disco para saber los tiempos)

los mismos acordes en los demas versos y el coro es igual
luego viene una parte casi antes del final k es asi

E|------------------------------------------------------
B|------------------------------------------------------
G|------------------------------------------------------
D|-----------------4-4-4-4-4-4---------------------------5-5-5-5-5-5----7-7-7-7-7-7
A|-5-5-5-7-5-7-5-7-4-4-4-4-4-4-2-2-2-2-2-2-5-5-7-5-7-5-7-5-5-5-5-5-5----7-7-7-7-7-7
E|-----------------2-2-2-2-2-2---------------------------3-3-3-3-3-3----5-5-5-5-5-5

luego el solo del final k es asi:

E|-----------------------------------------------------------------
B|------------------7-7-7-10-8-7--------------------8-8-8-7--------
G|--7-7-7-9-7-9-7-9--------------9-7------9-7-9-7-9---------9-7-6-7
D|-----------------------------------9-9-9-------------------------
A|-----------------------------------------------------------------
E|-----------------------------------------------------------------

Bueno y eso es todo y si les suena mal es por k no saben tokar guitarra
asi k chao.Saludos pa kriss
            
Submit corrections

comments powered by Disqus
↑ Back to top | 6 Voltios Tabs for Lej. Lyrics for acoustic guitar and electric guitar. 1 Tablatures and chords are parodies/interpretations of the original songs. You may use it for private study, scholarship, research or language learning purposes only