» » »

6 Voltios, Ese Beso Tabs (ver.1)

Artists:  A B C D E F G H I J K L M N O P Q R S T U V W X Y Z # 

Ese Beso Tabs (ver.1)

6 Voltios Tabs
 Rating:
4.2/5 (5 votes)
Ese Beso lessons Tabs too difficult? Try these video lessons and learn fast
                enjoy it, i'm from peru and i feel really proud of this group

INTRO

|--------------------------------------------------|
|--------------------------------------------------|
|----------------------------8---------5-----------|
|------8----------5--------8---8-----5---5---------|
|----8---8------5---5----6---------3---------------|
|--6----------3------------------------------------|


|--------------------------------------------------|
|--------------------------------------------------|
|----------------------------8---------5-----------|
|------8----------5--------8---8-----5---5-----8---|
|----8---8------5---5----6---------3-----------8---|
|--6----------3--------------------------------6---|


|--------------------------------------------------|
|--------------------------11--9--7----------------|
|--9--7--6--7--9--7--6--7------------9--7--6--7----|
|--------------------------------------------------| X2
|--------------------------------------------------|
|--------------------------------------------------|


A#5       D5      D#5 D#5     D5      C5
Ese beso que me diste no lo puedo olvidar.
A#5       D5    D#5 D#5   D5    C5                     
Mi única esperanza de que me puedas
A#5   D5    D#5       D#5  D5    C5                         
amar, amar, amar en tu mundo especial.
A#5   D5  D#5 D#5   D5    C5
Por favor regalame ese espacio
A#5      D5     D#5  D#5   D5    C5
donde puedas amarme, enséñame también
A#5  D5    D#5       D#5 D5 C5   
como estar contigo...


G5    D#5      A#5    D#5 A#5                 
En la Playa te besé. (te besé)
C5      D#5      A#5      C5                
Y desde ahí me enamoré de tí.
G5    D#5           A#5    D#5 A#5           
Aún espero por tu amor. (por tu amor)
C5           D#5  A#5     C5
Mi corazón espera por tí, por tí.


A#  D#    A#    D#           
Ese beso que me diste
G           C      G        D#
se que aún no lo e podido olvidar.
A#         D#          A#        D#
Es el mejor recuerdo, el mejor recuerdo
G           C              G    D#
que ante alguien me haya podido dar.


A#5 G5 D#5 C5


e|------------------------------------------------|
B|------------------------------------------------|
G|------------------7-8-7-8-7---------------------|
D|---8--10--8--7--8-----------8-------------------|
A|------------------------------------------------|
D|------------------------------------------------|


G5    D#5      A#5    D#5 A#5                 
En la Playa te besé. (te besé)
C5      D#5      A#5      C5                
Y desde ahí me enamoré de tí.
G5    D#5           A#5    D#5 A#5           
Aún espero por tu amor. (por tu amor)
C5           D#5  A#5     C5
Mi corazón espera por tí, por tí.


A#  D#    A#    D#           
Ese beso que me diste
G           C      G        D#
se que aún no lo e podido olvidar.
A#         D#          A#        D#
Es el mejor recuerdo, el mejor recuerdo
G           C              G    D#
que ante alguien me haya podido dar.


|--------------------------------------------------|
|--------------------------11--9--7----------------|
|--9--7--6--7--9--7--6--7------------9--7--6--7----|
|--------------------------------------------------| X2
|--------------------------------------------------|
|--------------------------------------------------|


A#5       D5      D#5 D#5     D5      C5
Ese beso que me diste no lo puedo olvidar.
A#5       D5    D#5 D#5   D5    C5                     
Mi única esperanza de que me puedas
A#5   D5    D#5       D#5  D5    C5                         
amar, amar, amar en tu mundo especial.
A#5   D5  D#5 D#5   D5    C5
Por favor regalame ese espacio
A#5      D5     D#5  D#5   D5    C5
donde puedas amarme, enséñame también
A#5  D5    D#5       D#5 D5 C5   
como estar contigo...
            
Submit corrections

comments powered by Disqus
↑ Back to top | 6 Voltios Tabs for Ese Beso. Lyrics for acoustic guitar and electric guitar. Tablatures and chords are parodies/interpretations of the original songs. You may use it for private study, scholarship, research or language learning purposes only