>
 >
Kasalanan

Kasalanan Guitar Tabs

6 Cycle Mind - Kasalanan chords, tabs, tablatures, lyrics

Guitar lessons | Add/correct | Request | Top 50 tabs Artists:  A B C D E F G H I J K L M N O P Q R S T U V W X Y Z 0-9

Kasalanan Guitar Tabs – 6 Cycle Mind

CD, Sheet music, Poster

Do you like Kasalanan? Share with your friends now
ChordsChords v2TabsUkulele
this is just Gr.1 & Gr.2 tab and rate plss

tuning:standard

1st INTRO:

Gr.2
E||--2-2-------------2-2-------------2-2------------2-2-------------|
B||-----4-4-2-2-4-4-----4-4-2-2-4-4-----4-4-2-2-4-4----4-4-2-2-4-4--|
G||-----------------------------------------------------------------|
D||-----------------------------------------------------------------|
A||-----------------------------------------------------------------|
E||-----------------------------------------------------------------|


Gr.1:C-G-Am-F
Gr.2:
E||--2--------2---------2-----2-------------------------------------|
B||----4-2~-----2/4-2~----2/4----5-4-2------------------------------|
G||-----------------------------------------------------------------|
D||-----------------------------------------------------------------|
A||-----------------------------------------------------------------|
E||-----------------------------------------------------------------|


VERSE:

Gr.2:
   Maari bang makausap ka? Di na biro ang nararamdaman
E||-2~-------|--2~--------|---2~-----|--2~--------------------|
B||---4~-----|----4~------|-----4~---|----4~------------------|
G||----------|------------|----------|------------------------|
D||----------|------------|----------|------------------------|
A||----------|------------|----------|------------------------|
E||----------|------------|----------|------------------------|

Gr.1:C-G-Am-F
Gr.2:
   Nalungkot sa    akin buhay     Mula nang ika'y  matauhan
E||-2~----222-----|--2~----222---|---2~---222-----|--2~---222------|
B||---4~--444-----|----4~--444---|-----4~-444-----|----4~-444------|
G||---------------|--------------|----------------|----------------|
D||---------------|--------------|----------------|----------------|
A||---------------|--------------|----------------|----------------|
E||---------------|--------------|----------------|----------------|
   |__________________________ ___________________________________|
                              /
       while Gr.2 plying this part.  Gr.1 use this chords C-G-Am-F


CHORUS:
Gr.1:C-G-Am-F 2x
Gr.2:
   Patawarin mo ako sa aking nagawang
E||--22222222-------22222222-----------|
B||--44444444-------22222222-----------|
G||------------------------------------|
D||------------------------------------|
A||------------------------------------|
E||------------------------------------|
     Kasalanan    Kasalan
E||--2222222222----------2222----------|
B||--4444444444---5-4-2--2222----------|
G||------------------------------------|
D||------------------------------------|
A||------------------------------------|
E||------------------------------------|
   Patawarin mo ako sa aking nagawang
E||--22222222-------22222222-----------|
B||--44444444-------22222222-----------|
G||------------------------------------|
D||------------------------------------|
A||------------------------------------|
E||------------------------------------|
     Kasalanan    Kasalan
E||--2222222222----------2222----------|
B||--4444444444---5-4-2--2222----------|
G||------------------------------------|
D||------------------------------------|
A||------------------------------------|
E||------------------------------------|

2nd INTRO:
Gr.1:C-G-Am-F
Gr.2:
E||--2----------2----------------------2-------------------|
B||----4-4-2-2~-----2/4-2~----2/4--2-2/4---5-4-2-0---------|
G||--------------------------------------------------------|
D||--------------------------------------------------------|
A||--------------------------------------------------------|
E||--------------------------------------------------------|

VERSE

Gr.1:C-G-Am-F
Gr.2:
    Maari bang   mapigilan pa    Ang iyong di  maaming binabalak
E||-2--2--2--2---2--2--2--2------2--2--2--2-----2--2--2--2------------|
B||--4--4--4--4---2--2--2--2------4---4--4--4----2--2--2--2-----------|
G||-------------------------------------------------------------------|
D||-------------------------------------------------------------------|
A||-------------------------------------------------------------------|
E||-------------------------------------------------------------------|

Gr.1:C-G-Am-F
Gr.2:
   Nakalimutan na ang pagsasama  DI na ba kayang  mapagbigyan
E||-2--2--2--2-----2--2--2--2-----2--2--2--2------------2--2--2--2----|
B||--4--4--4--4-----2--2--2--2-----4--4--4--4-----5-4-2--2--2--2--2---|
G||-------------------------------------------------------------------|
D||-------------------------------------------------------------------|
A||-------------------------------------------------------------------|
E||-------------------------------------------------------------------|

CHORUS:


Gr.1:C-G-Am-F 2x
Gr.2:
   Patawarin mo ako         sa aking nagawang
E||--2-2-2-2-2-2-2-2---------2-2-2-2-2-2-2-2-----------------|
B||---4-4-4-4-4-4-4-4-----2---2-2-2-2-2-2-2-2---------2/4----|
G||----------------------------------------------------------|
D||----------------------------------------------------------|
A||----------------------------------------------------------|
E||----------------------------------------------------------|
     Kasalanan                    Kasalan
E||--2-2-2-2-2-2-2-2-2-2----------2-2-2-2----------|
B||---4-4-4-4-4-4-4-4-4-4---5-4-2--2-2-2-2---------|
G||------------------------------------------------|
D||------------------------------------------------|
A||------------------------------------------------|
E||------------------------------------------------|
   Patawarin mo ako         sa aking nagawang
E||--2-2-2-2-2-2-2-2---------2-2-2-2-2-2-2-2-----------------|
B||---4-4-4-4-4-4-4-4-----2---2-2-2-2-2-2-2-2---------2/4----|
G||----------------------------------------------------------|
D||----------------------------------------------------------|
A||----------------------------------------------------------|
E||----------------------------------------------------------|
     Kasalanan                    Kasalan
E||--2-2-2-2-2-2-2-2-2-2----------2-2-2-2----------|
B||---4-4-4-4-4-4-4-4-4-4---5-4-2--2-2-2-2---------|
G||------------------------------------------------|
D||------------------------------------------------|
A||------------------------------------------------|
E||------------------------------------------------|

SoLO: GLOC 9`s part

Gr.1: C
Gr.2:
patawad ay isang salitang animo'y isang parusa
E||--2-2-2-2---|
B||---4-4-4-4--|
G||------------|
D||------------|
E||------------|

Gr.1: G
Gr.2:
ito'y sasambitin mo lang kung lahat ay huli na
E||--2-2-2-2---|
B||---2-2-2-2--|
G||------------|
D||------------|
E||------------|


Gr.1: Am
Gr.2:
 at di na maibabalik ang dating pinagsamahan
E||--2-2-2-2---|
B||---4-4-4-4--|
G||------------|
D||------------|
E||------------|

Gr.1: F
Gr.2:
 parang putik sa mukha na pinahid ng pabalang
E||--2-2-2-2---|
B||---2-2-2-2--|
G||------------|
D||------------|
E||------------|

Gr.1: C
Gr.2:
Sa iyo lahat ay paharang dahil ayaw mong magparaya
E||--2-2-2-2---|
B||---4-4-4-4--|
G||------------|
D||------------|
E||------------|

Gr.1: G
Gr.2:
habang siya'y bigay ng bigay at ipinauubaya
E||--2-2-2-2---|
B||---2-2-2-2--|
G||------------|
D||------------|
E||------------|

Gr.1: Am
Gr.2:
 lahat ng makakabuti kahit pa ang huling butil
E||--2-2-2-2---|
B||---4-4-4-4--|
G||------------|
D||------------|
E||------------|

Gr.1: F
Gr.2:
ay iaabot sa iyo. parang ika'y isang inutil
E||--2-2-2-2---|
B||---2-2-2-2--|
G||------------|
D||------------|
E||------------|


na


Gr.1: C
Gr.2:
hindi nagiisip wala kang nararamdaman
E||-------------------|
B||-------------------|
G||-------------------|
D||-6/8--6--4--6-6----|
E||-------------------|

Gr.1: G
Gr.2:
subukan mang pumikit wala kang natatandaan
E||-------------------|
B||-------------------|
G||-------------------|
D||-6/8--6--4--6-6----|
E||-------------------|


Gr.1: Am
Gr.2:
lagi mong inaalala ang para lamang sa yo
E||-------------------|
B||-------------------|
G||-------------------|
D||-6/8--6--4--6-6----|
E||-------------------|


Gr.1: F
Gr.2:
walang iba kundi ikaw at kailanma'y walang kayo
E||-------------------|
B||-------------------|
G||-------------------|
D||-6/8--6--4--6-6----|
E||-------------------|

Gr.1: C
Gr.2:
mapalad ka kung hihingan mo ng tawad ay nagagalit
E||-------------------|
B||-------------------|
G||-------------------|
D||-6/8--6--4--6-6----|
E||-------------------|


Gr.1: G
Gr.2:
pag nasasaktan sumisigaw ng salitang pumupunit kahit
E||-------------------|
B||-------------------|
G||-------------------|
D||-6/8--6--4--6-6----|
E||-------------------|


Gr.1: Am
Gr.2:
sabihin mong kausapin ay di na sasagot akapin
E||-------------------|
B||-------------------|
G||-------------------|
D||-6/8--6--4--6-6----|
E||-------------------|


Gr.1: F
Gr.2:
man ng mahigpit ay di mo na maabot (Patawad)
E||-------------------|
B||-------------------|
G||-------------------|
D||-6/8--6--4--6-6----|
E||-------------------|

BRIDGE:

Gr.1&2:

G     F
Di na mauulit

G     F
Di na uulitin

E||---------------|
B||---------------|
G||-5/3-----------|
D||-5/3-----------|
E||-3/1-----------|


D                G
Sana'y tanggapin mo


CHORUS:

Gr.1:
C                   G
Patawarin mo ako sa aking nagawang

Am         F
kasalanan, Kasalanan

Gr.1:C-G-Am-F 2x
Gr.2:
   Patawarin mo ako
E||--2-2-------------|
B||-----4-4-2-2-4-4--|
G||------------------|
D||------------------|
A||------------------|
E||------------------|
   sa aking nagawang
E||--2-2-------------|
B||-----4-4-2-2-4-4--|
G||------------------|
D||------------------|
A||------------------|
E||------------------|
   kasalanan
E||--2-2-------------|
B||-----4-4-2-2-4-4--|
G||------------------|
D||------------------|
A||------------------|
E||------------------|
   kasalanan
E||--2-2-------------|
B||-----4-4-2-2-4-4--|
G||------------------|
D||------------------|
A||------------------|
E||------------------|

2ND GLOC 9`S PART & CHORUS

Gr.2
E||-------------------|
B||-------------------|
G||-------------------|
D||-6/8--6--4--6-6----|
E||-------------------|

Gr.1
C-G-Am-F


tayoy'y nagtalo't nagsigawan at halos magtulakan sa
galit ko ako'y lumayas at di ka binalikan
sinuyog ang lahat ng pangako at ang pagmamahal
sumpaan natin sa isa't isa di rin nagtagal

ang gabi ay laging umaga umaga'y laging gabi
ako'y gumugising ng di ko kilala ang katabi
paulit ulit na ganito ngunit ng aking makita larawan
mo sa loob ng aking lumang pitaka ay nalaman ko

hinanap ko ang tunay na sarili ko nakita ko nalaman ko
ito ay nasa piling mo inipon ang lahat ng aking lakas
ng loob ngunit bakit parang hindi rin maganda ang
aking kutob.

Nilapitan ka at pilit na tinitingan sa mata
ako'y nagdarasal na sabihin mo sa kin pwede pa
ika'y hindi kumikibo at parang lumalayo tila pagibig
mo sa kin tulyan ng natuyo





Comments


Popular 6 Cycle Mind tabs & chords
Collide Chords
Fall Out Chords
Alapaap 3 Tabs
Biglaan 2 Tabs
Fly 2 Tabs
Upside Downt Tabs
I Ukulele
In Between Days Ukulele
Princesa Ukulele
Sige Ukulele


Song lyrics



↑ Back to top | Tablatures and chords are parodies/interpretations of the original songs. You may use it for private study, scholarship, research or language learning purposes only
© 2014 AZChords.com Contact us | Privacy policy | DMCA | Add/correct tabs | Request tabs | Top 50 tabs