» » »

6 Cycle Mind, Fiesta Tabs (ver.1)

Artists:  A B C D E F G H I J K L M N O P Q R S T U V W X Y Z # 

Fiesta Tabs (ver.1)

6 Cycle Mind Tabs
 Rating:
4.2/5 (5 votes)
Fiesta lessons Tabs too difficult? Try these video lessons and learn fast
1
                
                     This is the NEw Song of 6 CYcLe Mind
                            Please Support this song...

Intro 1:
|-------------------------------------------|
|-------------------------------------------|
|------55--\-5-\-33-\-55-\-666--------------|
|------55--\-5-\-33-\-55-\-666--------------|
|------44--\-3-\-11-\-33-\-444--------------|
|-------------------------------------------|



Intro 2: Guitar 1:

|-------------------------------------------------------------------------------------|
|----15h14h12---------10-------15h14h12-----10--------------15h14h12-----16-----------|
|----------------------14--------------------------14-----15-----------------14-------|
|-------------------------------------------------------------------------------------|
|-------------------------------------------------------------------------------------|
|-------------------------------------------------------------------------------------|

Guitar 2:
|---------------------------------------------------|
|---------------------------------------------------|
|---------------------------------------------------|
|------77777-------55555-------777777-------55555---|
|------77777-------55555-------777777-------55555---|
|------55555-------33333-------555555-------33333---|



Verse:

Drums:

Then:

Dumating na mga…..
|-------------------------------------------------------------|
|-------------------------------------------------------------|
|-------------------------------------------------------------|
|------77777-------55555-------777777-------55555-------------|
|------77777-------55555-------777777-------55555-------------|
|------55555-------33333-------555555-------33333-------------|
 Pm       pm      pm       pm           pm              pm          

Ganito sa aming….
|-------------------------------------------------------|
|-------------------------------------------------------|
|----4444------------7777------99999--------------------|
|----4444------------7777------99999--------------------|
|----2222------------5555------77777--------------------|
|-------------------------------------------------------|

Chorus:

|------------------------------------------------------|
|------------------------------------------------------|
|------------------------------------------------------|
|------77777-------55555-------777777-------55555------|
|------77777-------55555-------777777-------55555------|
|------55555-------33333-------555555-------33333------|

Then

|---------------------------------------|
|---------------------------------------|
|----4444------------7777------99999----|
|----4444------------7777------99999----|
|----2222------------5555------77777----|
|---------------------------------------|
Verse:
Refrain:
Chorus:


Adlib:

|-----------------------------------------------------------|
|-----------------------------------------------------------|
|-----------------------------------------------------------|
|------77777-------55555-------777777-------55555-----------|
|------77777-------55555-------777777-------55555-----------|
|------55555-------33333-------555555-------33333-----------|

Verse: Chorus:
            
Submit corrections

comments powered by Disqus
↑ Back to top | 6 Cycle Mind Tabs for Fiesta. Lyrics for acoustic guitar and electric guitar. 1 Tablatures and chords are parodies/interpretations of the original songs. You may use it for private study, scholarship, research or language learning purposes only