>
 >
Dead Girls Are Easy

Dead Girls Are Easy Guitar Tabs

69 Eyes - Dead Girls Are Easy chords, tabs, tablatures, lyrics

Guitar lessons | Add/correct | Request | Top 50 tabs Artists:  A B C D E F G H I J K L M N O P Q R S T U V W X Y Z 0-9

Dead Girls Are Easy Guitar Tabs – 69 Eyes

CD, Sheet music, Poster

Do you like Dead Girls Are Easy? Share with your friends now
Tabs
-------------------------------------------------------------------------------
-------------------------------------------------------------------------------




Tuning: Drop Db ( Db Ab Db Gb Bb Eb )


* This song is pretty tricky to play... it is also fast but its one of *
  
  their coolest songs to jam on guitar




   Intro / Main Riff ( Starting w/ Bazie and Timo-Timo together)

eb|---------------------------------------------------------------------|
Bb|---------------------------------------------------------------------|
Gb|--------------------------5-5-5---------------------------5p4---------|
Db|--2-4-4-4-7p4-4-4-2-4-4-4---------2-4-4-4-7p4-4-4-2h4-4-4------2-------|
Ab|--2-4-4-4-7p4-4-4-2-4-4-4---------2-4-4-4-7p4-4-4-2h4-4-4--------------|
Db|--2-4-4-4-7p4-4-4-2-4-4-4---------2-4-4-4-7p4-4-4-2h4-4-4--------------|

eb|----------------------------------------------------------|
Bb|----------------------------------------------------------|
Gb|-------------------------5-5-5---------------------4------|
Db|--2h4-4-4-7p4-4-2-4-4-4---------2-4-4-4-7p4-4-4-2--4------|
Ab|--2h4-4-4-7p4-4-2-4-4-4---------2-4-4-4-7p4-4-4-2--2------|
Db|--2h4-4-4-7p4-4-2-4-4-4---------2-4-4-4-7p4-4-4-2---------|


   Timo-Timo Repeats Intro but Bazie plays this w/ cry:
   

eb|-------------------------------------------------|
Bb|-------------------------------------------------|
Gb|--11--11-11-11-11-11-11-11-11-11-11-11-11-11-11--|
Db|--x---x--x--x--x--x--x--x--x--x--x--x--x--x--x---|
Ab|--9---9--9--9--9--9--9--9--9--9--9--9--9--9--9---|
Db|-------------------------------------------------|

eb|-------------------------------------------------|
Bb|-------------------------------------------------|
Gb|--9---9--9--9--9--9--9--9--9--9--9--9--9--9--9---|
Db|--x---x--x--x--x--x--x--x--x--x--x--x--x--x--x---|
Ab|--7---7--7--7--7--7--7--7--7--7--7--7--7--7--7---|
Db|-------------------------------------------------|

eb|---------------------------------------------------|
Bb|---------------------------------------------------|
Gb|--13---13--13--13--13--13--13--13--13--13--13--13--|
Db|---x----x---x---x---x---x---x---x---x---x---x---x--|
Ab|--11---11--11--11--11--11--11--11--11--11--11--11--|
Db|---------------------------------------------------|

eb|---------------------------------------------------|
Bb|---------------------------------------------------|
Gb|--11--11-11-11-11-11-11-11-11-11-11-11-11-11-11-11-|
Db|--x---x--x--x--x--x--x--x--x--x--x--x--x--x--x--x--|
Ab|--9---9--9--9--9--9--9--9--9--9--9--9--9--9--9--9--|
Db|---------------------------------------------------|







    Verse ( Bazie w/ wah-wah ) x 2

eb|-----------------------------------------------------|
Bb|-----------------------------------------------------|
Gb|----------2----------x-5p4----------2---------5p4----|
Db|--2h4-x-x---4-x-2-4---------2h4-x-x---4-x-2-4-----2--|
Ab|-----------------------------------------------------|
Db|-----------------------------------------------------|

eb|------------------------------------------------|
Bb|------------------------------------------------|
Gb|----------2----------x-5p4----------2-----4b----|
Db|--2h4-x-x---4-x-2-4---------2h4-x-x---4-x-------|  
Ab|------------------------------------------------|
Db|------------------------------------------------|







    Pre-Chorus ( Bazie and Timo-Timo) x 2


eb|------------------------------------------------------------|
Bb|------------------------------------------------------------|
Gb|------------------------------------------------------------|
Db|--7--4-4-4-4-4----9--4-4-4-4-4----7--4-4-4-4-4---7-----7----|
Ab|--7--4-4-4-4-4----9--4-4-4-4-4----7--4-4-4-4-4-----9-7---9--|
Db|--7--4-4-4-4-4----9--4-4-4-4-4----7--4-4-4-4-4--------------|
                                                      P P
          






    Chorus ( Bazie and Timo-Timo together w/ diff. riffs) 


    I broke this into two parts... 

    First Timo-Timo ( Heavy Distortion ) x 3
  
eb|---------------------------------------------------------|
Bb ---------------------------------------------------------|
Gb|--2--------------4---------------------------------------|
Db|--2--------------4-------------4-------------------------|
Ab|--0--------------2-------------4-------------------------|
Db|-------------------------------4-------------------------|

    And now Bazie  x3

eb|---------------------------------------------------------|
Bb|---------------------------------------------------------|
Gb|---------------------------------------------------------|
Db|--7--4-4-4-4-4---9--4-4-4-4-4---7--4-4-4-4-4-4-4-4-4-4---|
Ab|---------------------------------------------------------|
Db|---------------------------------------------------------|


    then this to end the Chorus...


    Timo-Timo  x 1

eb|------------------------------------------|
Bb|------------------------------------------|
Gb|--2---------------------------4---5-------|
Db|--2-sustain-------------------4---5-------|
Ab|--0---------------------------2---3-------|
Db|------------------------------------------|

    Bazie  x 1

eb|----------------------------------------|
Bb|----------------------------------------|
Gb|------------------------------4b-5b-----|
Db|--7--4-4-4-4-4--2--4-4-4-4-4------------|
Ab|----------------------------------------|
Db|----------------------------------------|




    Main Riff





    Verse






    Pre-Chorus 






    Chorus




   

    Solo ( lol.. i swear I will do this later too make sure its right!!!)


eb|---------------------------------------------------------------------------|
Bb|---------------------------------------------------------------------------|
Gb|---------------------------------------------------------------------------|
Db|---------------------------------------------------------------------------|
Ab|---------------------------------------------------------------------------|
Db|---------------------------------------------------------------------------|

eb|---------------------------------------------------------------------------|
Bb|---------------------------------------------------------------------------|
Gb|---------------------------------------------------------------------------|
Db|---------------------------------------------------------------------------|
Ab|---------------------------------------------------------------------------|
Db|---------------------------------------------------------------------------|




    Interlude ( "Dead....Dead...." )


eb|---------------------------------------------------| 
Bb|---------------------------------------------------|
Gb|-------------------4-----------------------4-------|
Db|--4-------------2--4---4-----pick-------2--4-------|
Ab|--4-------------2--2---4----slide-------2--2-------|
Db|--4-------------2------4----------------2----------|







   Chorus







   Main Riff






   

  Outro ( Split into two parts...)

   Timo-Timo starts to play the riff from the Pre-Chorus...

   and Bazie starts to play this in the middle... just listen for it


eb|-----------------------------------------------|
Bb|-----------------------------------------------|
Gb|--9h11-9h11-9h11-9h11-9h11-9h11-9h11-9h11------|
Db|-----------------------------------------------|
Ab|-----------------------------------------------|
Db|-----------------------------------------------|

eb|-------------------------------------------------------|
Bb|--10-10-10-10-10-10-10-10-10-10-10-10-10-10-10-10-10---|
Gb|-------------------------------------------------------|
Db|-------------------------------------------------------|
Ab|-------------------------------------------------------|
Db|-------------------------------------------------------|


    Both guitarists end with...

eb|--------------------|
Bb|--------------------|
Gb|---------4--2-------|
Db|--2------4--2---4---|
Ab|--2------2--0---4---|
Db|--2-------------4---|



| x  scratch 
| b  bend
| h  hammer-on
| p  pull-off
| P  palm mute


  Thats all... i will get the solo later. have fun





Comments


Popular 69 Eyes tabs & chords
Still Waters Run Deep 2 Bass Tabs
The Chair 3 Bass Tabs
Velvet Touch Bass Tabs
Borderline 1 Chords
Brandon Lee Chords
Beneath The Blue Tabs
D.I.D Tabs
From Dusk Till Dawn Tabs
Suspiria Snow White Tabs
Wasting The Dawn (Intro) Tabs


Song lyrics



↑ Back to top | Tablatures and chords are parodies/interpretations of the original songs. You may use it for private study, scholarship, research or language learning purposes only
© 2014 AZChords.com Contact us | Privacy policy | DMCA | Add/correct tabs | Request tabs | Top 50 tabs