>
 >
Crashing High

Crashing High Bass Tabs

69 Eyes - Crashing High chords, tabs, tablatures, lyrics

Guitar lessons | Add/correct | Request | Top 50 tabs Artists:  A B C D E F G H I J K L M N O P Q R S T U V W X Y Z 0-9

Crashing High Bass Tabs – 69 Eyes

CD, Sheet music, Poster

Do you like Crashing High? Share with your friends now
Bass TabsTabs
#------------------------------------------------------------------------------##

                            CRASHING HIGH (Bassline)
                           As recorded by The 69 Eyes
                        (From the 2002 Album PARIS KILLS)

Words by Jyrki

Music by Bazie
Arranged by The 69 Eyes

Gtr I (Db Ab Db Gb) - 'Archzie'
Gtr II (Db Ab Db Gb) - 'Johnny Lee Michaels'

   Intro
    Q=136
    $
   4/4
    Gtr I
    E E E E E E E E    E E E E E E E E
||------------------|------------------|
||o-----------------|------------------|
||o-----------------|------------------|
||--0-0-0-0-0-0-0-0-|--5-5-5-5-5-5-5-5-|
|
|   Gtr II
|   W                  W
||--7---------------|-12---------------|
||o-7---------------|-12---------------|
||o-5---------------|-10---------------|
||------------------|------------------|


                              To Coda
                              To Coda
   E E E  E E E  E E   E E E E E E E E
|--------------------|------------------||
|--------------------|-----------------o||
|--------------------|-3-3-3-3-3-3-3-3-o||
|--3-3-3--3-3-3--3-3-|------------------||
|
|  Q   E  Q   E  Q     E E E E E E E E
|-10-----10-----10---|---5-5-5-5---5----||
|-10-----10-----10---|---5-5-5-5---5---o||
|--8---8--8---8--8---|---3-3-3---3---3-o||
|--------------------|------------------||


 Verse
  Q  Q  E E E E   +E  E +E  E E E E E    Q   Q  E E E E   E E E E E E E E
|---------------|---------------------|-----------------|-----------------|
|---------------|---------------------|-----------------|-----------------|
|---------------|---------------------|-----------------|-3-3-3-3-3-0-3-5-|
|-0--0--0-0-0-0-|-(0)-0-(0)-0-0-0-0-0-|--0---0--0-0-0-0-|-----------------|
|
| W               +W                    +W                W
|---------------|---------------------|-----------------|-----------------|
|-7-------------|-(7)-----------------|-(7)-------------|-----------------|
|-5-------------|-(5)-----------------|-(5)-------------|-----------------|
|---------------|---------------------|-----------------|-----------------|


  Q  Q  E E E E   +E  E +E  E E E E E   Q  Q  E E E E   E E E E E E E E
|---------------|---------------------|---------------|-----------------||
|---------------|---------------------|---------------|-----------------||
|---------------|---------------------|---------------|-3-3-3-3-3-0-3-5-||
|-0--0--0-0-0-0-|-(0)-0-(0)-0-0-0-0-0-|-0--0--0-0-0-0-|-----------------||


 Pre-Chorus
  $$
  E E E E E E E E   E E E E E E E E   Q  Q  E E +E  E   E E E E E E E E
|-----------------|-----------------|-----------------|-----------------|
|-----------------|-----------------|-----------------|-----------------|
|-----------------|-3-3-3-3-3-3-3-3-|-----------------|-----------------|
|-3-3-3-3-3-3-3-3-|-----------------|-0--0--0-0-(0)-0s|=5-5-5-5-5-5-5-5-|


  E E E E E E E E   E E E E E E E E
|-----------------|-----------------|
|-----------------|-----------------|
|-----------------|-3-3-3-3-3-3-3-3-|
|-3-3-3-3-3-3-3-3-|-----------------|


  E E E E E E E E    E  +E   E  +E   E E  E  E
|-----------------|----------------------------||
|-----------------|----------------------------||
|---------------5s|=10-(10)-10-(10)-10-8-------||
|-5-5-5-5-5-5-5---|----------------------12-10-||


 Chorus
  E +E  E E E E E E   +E  E E E E E E E
|-------------------|-------------------|
|-------------------|-------------------|
|-5-(5)-5-5-5-3-5---|-------------------|
|-----------------5-|-(5)-5-5-5-5-5-5-5-|


  E +E  E E E E E E   +E  E E E E E E E
|-------------------|-------------------|
|-------------------|-------------------|
|-----------------3-|-(3)-3-3-3-3-3-3-3-|
|-3-(3)-3-3-3-0-3---|-------------------|


  E +E  E E E E E E   +E  E E E E E E E
|-------------------|-------------------|
|-------------------|-------------------|
|-5-(5)-5-5-5-3-5---|-------------------|
|-----------------5-|-(5)-5-5-5-5-5-5-5-|


                          D.S. al Coda
                          D.S. al Coda
  E +E  E E E E E E   +E  E E E E E E E
|-------------------|-------------------||
|-------------------|-------------------||
|-----------------3-|-(3)-3-3-3-3-3-3-3-||
|-3-(3)-3-3-3-0-3---|-------------------||


 Verse
  &
  Q  Q  E E E E   +E  E +E  E E E E E    Q   Q  E E E E   E E E E E E E E
|---------------|---------------------|-----------------|-----------------|
|---------------|---------------------|-----------------|-----------------|
|---------------|---------------------|-----------------|-3-3-3-3-3-0-3-5-|
|-0--0--0-0-0-0-|-(0)-0-(0)-0-0-0-0-0-|--0---0--0-0-0-0-|-----------------|
|
| Gtr II
| W               +W                    +W                W
|---------------|---------------------|-----------------|-----------------|
|-7-------------|-(7)-----------------|-(7)-------------|-----------------|
|-5-------------|-(5)-----------------|-(5)-------------|-----------------|
|---------------|---------------------|-----------------|-----------------|


                                                                D.S.S.
  Q  Q  E E E E   +E  E +E  E E E E E   Q  Q  E E E E   E E E E E E E E
|---------------|---------------------|---------------|-----------------||
|---------------|---------------------|---------------|-----------------||
|---------------|---------------------|---------------|-3-3-3-3-3-0-3-5-||
|-0--0--0-0-0-0-|-(0)-0-(0)-0-0-0-0-0-|-0--0--0-0-0-0-|-----------------||


 Interlude
  &&
  W          +W           W          W
|----------|------------|----------|------|
|----------|------------|----------|------|
|----------|------------|----------|-3----|
|-0--------|-(0)--------|-3--------|------|


  W          W          W           W
|----------|----------|----------|-------|
|----------|----------|----------|-------|
|----------|----------|----------|--3----|
|-0--------|-5--------|-3--------|-------|
|
| Gtr II
| W          W          W           W
|----------|----------|----------|-17----|
|----------|----------|----------|-17----|
|----------|----------|----------|-15----|
|----------|----------|----------|-------|


   W           +W             W             W
|-----------|-------------|-------------|---------|
|-----------|-------------|-------------|---------|
|-----------|-------------|-------------|---3-----|
|--0--------|--(0)--------|---3---------|---------|
|
|  W           +W            +W            +W
|-----------|-------------|-------------|---------|
|-19--------|-(19)--------|-(19)--------|-(19)----|
|-17--------|-(17)--------|-(17)--------|-(17)----|
|-----------|-------------|-------------|---------|


  W          W          W
|----------|----------|------|
|----------|----------|------|
|----------|----------|------|
|-0--------|-5--------|-3----|


  W          W          +W
|----------|----------|--------||
|----------|----------|--------||
|-3--------|-5--------|-(5)----||
|----------|----------|--------||


   Chorus
    E +E  E E E E E E   +E  E E E E E E E
||--------------------|-------------------|
||o-------------------|-------------------|
||o-5-(5)-5-5-5-3-5---|-------------------|
||------------------5-|-(5)-5-5-5-5-5-5-5-|


  E +E  E E E E E E   +E  E E E E E E E   4x
|-------------------|---------------------||
|-------------------|--------------------o||
|-----------------3-|-(3)-3-3-3-3-3-3-3--o||
|-3-(3)-3-3-3-3-3---|---------------------||


   Outro
    E E E E E E E E    E E E E E E E E
||------------------|------------------|
||o-----------------|------------------|
||o-----------------|------------------|
||--0-0-0-0-0-0-0-0-|--5-5-5-5-5-5-5-5-|
|
|   Gtr II
|   W                  W
||--7---------------|-12---------------|
||o-7---------------|-12---------------|
||o-5---------------|-10---------------|
||------------------|------------------|


   E  E E  E  E E  E E   E E E E E E E E
|----------------------|-------------------||
|----------------------|------------------o||
|----------------------|-3-3-3-3-3-3-3-3--o||
|--3--3-3--3--3-3--3-3-|-------------------||
|
|  Q.      Q.      Q     E E E E E E E E
|-10------10------10---|---5-5-5-5---5-----||
|-10------10------10---|---5-5-5-5---5----o||
|--8-------8-------8---|---3-3-3---3---3--o||
|----------------------|-------------------||


  W          +W           +W           +W
|----------|------------|------------|--------|
|----------|------------|------------|--------|
|----------|------------|------------|--------|
|-0--------|-(0)--------|-(0)--------|-(0)----|
|
| W          +W           +W           +W
|-7--------|-(7)--------|-(7)--------|-(7)----|
|-7--------|-(7)--------|-(7)--------|-(7)----|
|-5--------|-(5)--------|-(5)--------|-(5)----|
|----------|------------|------------|--------|


  +W           +W           +W
|------------|------------|--------|
|------------|------------|--------|
|------------|------------|--------|
|-(0)--------|-(0)--------|-(0)----|
|
| +W           +W           +W
|-(7)--------|-(7)--------|-(7)----|
|-(7)--------|-(7)--------|-(7)----|
|-(5)--------|-(5)--------|-(5)----|
|------------|------------|--------|


  +W           +W           +Q    H    a Q
|------------|------------|------------------*|
|------------|------------|------------------*|
|------------|------------|------------------*|
|-(0)--------|-(0)--------|-(0)--10s===x-----*|
|
| +W           +W            W
|-(7)--------|-(7)--------|------------------*|
|-(7)--------|-(7)--------|------------------*|
|-(5)--------|-(5)--------|------------------*|
|------------|------------|------------------*|


Duration Legend
---------------
W - whole; H - half; Q - quarter; E - 8th; S - 16th; T - 32nd; X - 64th; a - acciaccatura
+ - note tied to previous; . - note dotted; .. - note double dotted
Uncapitalized letters represent notes that are staccato (1/2 duration)
Irregular groupings are notated above the duration line
Duration letters will always appear directly above the note/fret number it represents the
duration for.  Duration letters with no fret number below them represent rests.  Multi-
bar rests are notated in the form Wxn, where n is the number of bars to rest for.  Low
melody durations appear below the staff

Tablature Legend
----------------
 h   - hammer-on
 p   - pull-off
 b   - bend
 pb  - pre-bend
 r   - bend release (if no number after the r, then release immediately)
 /\  - slide into or out of (from/to "nowhere")
 s   - legato slide
 S   - shift slide
  - natural harmonic
[n]  - artificial harmonic
n(n) - tapped harmonic
 ~   - vibrato
 tr  - trill
 T   - tap
 TP  - trem. picking
 PM  - palm muting
\n/  - tremolo bar dip; n = amount to dip
 \n  - tremolo bar down
 n/  - tremolo bar up
/n\  - tremolo bar inverted dip
 =   - hold bend; also acts as connecting device for hammers/pulls
 <>  - volume swell (louder/softer)
 x   - on rhythm slash represents muted slash
 o   - on rhythm slash represents single note slash

Misc Legend
-----------
 |  - bar
||  - double bar
||o - repeat start
o|| - repeat end
*|  - double bar (ending)
 :  - bar (freetime)
 $  - Segno
 &  - Coda
Tempo markers -  = BPM(8/16=s8/s16), where s8 = swing 8ths, s16 = swing 16ths





Comments


Popular 69 Eyes tabs & chords
D.I.D Bass Tabs
Dance D'Amour Bass Tabs
Still Waters Run Deep 2 Bass Tabs
Velvet Touch Bass Tabs
Brandon Lee Chords
Back In Blood Intro Tabs
Framed In Blood Tabs
Gothic Girl 1 Tabs
Grey Intro Tabs
Wasting The Dawn 1 Tabs


Song lyrics



↑ Back to top | Tablatures and chords are parodies/interpretations of the original songs. You may use it for private study, scholarship, research or language learning purposes only
© 2014 AZChords.com Contact us | Privacy policy | DMCA | Add/correct tabs | Request tabs | Top 50 tabs