» » »

4 Skins, One Law For Them Bass tabs (ver.2)

Artists:  A B C D E F G H I J K L M N O P Q R S T U V W X Y Z # 

One Law For Them Bass tabs (ver.2)

4 Skins Tabs
 Rating:
4/5 (4 votes)
One Law For Them lessons Tabs too difficult? Try these video lessons and learn fast
1
                
intro

g/-------------------------------------------------/
d/------------------------------------7777-10-7-10-/
a/-7777-10-7-5-3333-5-3-5-7777-10-7-10-------------/
e/-------------------------------------------------/

g/--------------------------------------------/
d/------------------------------------77777777/
a/-7777-10-7-5-3333-5-3-5-7777-10-7-10--------/
e/--------------------------------------------/

Verse
g/------------------------/------------------------/
d/------------------------/------------------------/
a/7777-10101010-3333-5555-/-7777-10101010-3333-----/
e/------------------------/--------------------5555/

Chorus
g/-----------------------------------------------/
d/-----------------------------------------------/
a/-7-777-5-555-3-333-5-555-7-777-5-555-3-333-----/
e/------------------------------------------5-555/

post chorus
g/----------------------/
d/----------------------/
a/-----3-333-5-555-7-777/
e/3-333-----------------/

solo / last verse
g/---------------------------------------/
d/-------7-----------9-10-9----454----454/
a/7777-10-10-10101010------3333---5555---/
e/---------------------------------------/


A good m8 of mine tabbed this out 4 me wen i first started playing i think it was the 
song that i learnt. this is a gud tab listen for the timing n you'll be away have fun Oi! Oi!
            
Submit corrections

comments powered by Disqus
↑ Back to top | 4 Skins Bass for One Law For Them. Lyrics for acoustic guitar and electric guitar. 1 Tablatures and chords are parodies/interpretations of the original songs. You may use it for private study, scholarship, research or language learning purposes only