» » »

Evil Bass tabs (ver.1)

Artists:  A B C D E F G H I J K L M N O P Q R S T U V W X Y Z # 

Evil Bass tabs (ver.1)

4 Skins
Rating:
0/5 (0 votes)
Tabs too difficult? Try these video lessons and learn fast.
                The 4 Skins


Intro:
G--------------------------------------|
D--------------------------------------|
A--3-3--3-2----------5-5--5-4----------|
E-----------3-3-3-3-----------5-5-5-5--|

Verse:
G------------------------------------|
D------------------------------------|
A--3-3--3-2----2-3--5-5--5-4----4-5--|
E-----------3-3--------------5-5-----|

Chorus:
G-------------------|
D-------------------|
A--0-0-0-0-0-0-0----|
E----------------3--| Let the G Note Ring

Bridge:

G----------|
D----------|
A-----0----| Let'em Ring
E--3-------|


Intro 2X
Verse 2X
Chorus 2X
Intro 2X
Verse 2X
Chorus 2X
Intro 2X
Bridge 8X
Intro 2X
Verse 2X
Chorus Infinate
            
Tabs too difficult? Try these video lessons and learn fast.


comments powered by Disqus
↑ Back to top | Tablatures and chords are parodies/interpretations of the original songs. You may use it for private study, scholarship, research or language learning purposes only