» » »

4lyn, Bahama Mama Bass tabs (ver.1)

Artists:  A B C D E F G H I J K L M N O P Q R S T U V W X Y Z # 

Bahama Mama Bass tabs (ver.1)

4lyn Tabs
 Rating:
4/5 (4 votes)
Bahama Mama lessons Tabs too difficult? Try these video lessons and learn fast
                bass tab: bahama mama

/ = slide up
\ = slide down
! = 16tel

 (bass intro)
G|-5-5-5-5-|-5-5-----10---|
D|---------|--------------|
A|---------|--------------|
E|-5-5-3-3-|-4-4-4/9----9-|
B|---------|--------------|

 (bridge zur 1. strophe)
G|-----------|------------|------------|-----------|
D|-----------|------------|------------|--------11-|
A|---9-------|---11-------|---9--------|-----11----|
E|-7---7-----|-9----9-----|-7---7------|-9-9-------|
B|-------7-8-|--------9-8-|--------7-8-|-----------|
  

 (strophe)                           (strophenende)
G|-6---6\4---4/-|-6---6------11----| |-4-3-|-4-3-|-4-----------------|
D|---7-----5----|---7--------------| |-----|-----|-------------------|
A|--------------|------------------| |-----|-----|-------------------|
E|-5---5\3---3/-|-5---5-5/10----10-| |-3-2-|-3-2-|-3-2-2-2-2-2-2-2-2-|
B|--------------|------------------| |-----|-----|-------------------|

 (refrain)
G|-------|----------------|-------|----------------|-------|----------------|-------|---|
D|-------|------5---5-----|-------|----------------|-------|------5---5-----|-------|---|
A|----3!-|----------------|----3!-|-5!-------------|----3!-|----------------|-------|---|
E|-5!----|-3!-3---3---3-4-|-5!----|----------------|-5!----|-3!-3---3---3-4-|-5!-3!-|-4-|
B|-------|----------------|-------|----2-5-2-0-2-2-|-------|----------------|-------|---|

 (raggea part)
G|--------------------------|-----------------------------|--------------------------|
D|--------------------------|-----------------------------|--------------------------|
A|-----------9-9------9-9---|---------------------11-11---|-----------9-9------9-9---|
E|-7-7-10-10-----7-10-------|-12-9-12-12-9-9-9-12---------|-7-7-10-10-----7-10-------|
B|------------------------7-|---------------------------9-|------------------------7-|

G|----------------------------|
D|----------------------------|
A|-----------11-11------------|
E|-9-9-12-12-------12-12-12-9-|
B|----------------------------|

 (c-part)
G|-------------| |---------------|
D|-------------| |---------------|
A|-------------| |---------------|
E|-------------| |---------------|
B|-2-5-2-0-2-2-| |-2-5-2-0-3-3-3-|
            
Submit corrections

comments powered by Disqus
↑ Back to top | 4lyn Bass for Bahama Mama. Lyrics for acoustic guitar and electric guitar. Tablatures and chords are parodies/interpretations of the original songs. You may use it for private study, scholarship, research or language learning purposes only