» » »

Bahama Mama Tabs (ver.1)

Artists:  A B C D E F G H I J K L M N O P Q R S T U V W X Y Z # 

Bahama Mama Tabs (ver.1)

4lyn
Rating:
5/5 (1 vote)

Hard to play? Try these video lessons and learn fast.
                INTRO

-----------------------------------------------------------------------------|
-----------------------------------------------------------------------------|
-10/15---10/15---15----1510--10/15------19---1510--19/22---22----------------|
-----------------------------------------------------------------------------|
-----------------------------------------------------------------------------|
-----------------------------------------------------------------------------|

BRIDGE 1			   END OF BRIDGE

||------------------------------||-------------------------------------------|
||------------------------------||-------------------------------------------|
||*--8-12-8-12/--10-14-10-14--*||---10-14-19---------------------------------|
||------------------------------||-------------------------------------------|
||------------------------------||-------------------------------------------|
||------------------------------||-------------------------------------------|

VERSE 1

-----------------------------------------------------------------------------|
-------18-15-------16-1311------16-18--16------------------------------------|
-15-19-------13-17----13-----------------------------------------------------|
-----------------------------------------------------------------------------|
-----------------------------------------------------------------------------|
-----------------------------------------------------------------------------|

VERSE 2

-----------------------------------------------------------------------------|
-------18-15-------16-1312----12/13-12--12/13-12bbbbb------------------------|
-15-19-------13-17----13-----------------------------------------------------|
-----------------------------------------------------------------------------|
-----------------------------------------------------------------------------|
-----------------------------------------------------------------------------|

CHORUS 1

----------------------------------------------------------------------------|
----------------------------------------------------------------------------|
----------------------------------------------------------------------------|
-8-8-8-8-8-8-8-8-11-11-11-11-11-11-11-11-6-6-6-6-6-6-6-6-6-6-6-6-6-6-6-6----|
-8-8-8-8-8-8-8-8-11-11-11-11-11-11-11-11-6-6-6-6-6-6-6-6-6-6-6-6-6-6-6-6----|
-8-8-8-8-8-8-8-8-11-11-11-11-11-11-11-11-6-6-6-6-6-6-6-6-6-6-6-6-6-6-6-6----|


----------------------------------------------------------------------------|
----------------------------------------------------------------------------|
----------------------------------------------------------------------------|
-8-8-8-8-8-8-8-8-11-11-11-11-11-11-11-11-13-13-13-13-13-13-13-13-0-3-0-3-0--|
-8-8-8-8-8-8-8-8-11-11-11-11-11-11-11-11-13-13-13-13-13-13-13-13-0-3-0-3-0--|
-8-8-8-8-8-8-8-8-11-11-11-11-11-11-11-11-13-13-13-13-13-13-13-13-0-3-0-3-0--|


----------------------------------------------------------------------------|
----------------------------------------------------------------------------|
----------------------------------------------------------------------------|
-8-8-8-8-8-8-8-8-11-11-11-11-11-11-11-11-6-6-6-6-6-6-6-6-6-6-6-6-6-6-6-6----|
-8-8-8-8-8-8-8-8-11-11-11-11-11-11-11-11-6-6-6-6-6-6-6-6-6-6-6-6-6-6-6-6----|
-8-8-8-8-8-8-8-8-11-11-11-11-11-11-11-11-6-6-6-6-6-6-6-6-6-6-6-6-6-6-6-6----|


----------------------------------------------------------------------------|
----------------------------------------------------------------------------|
----------------------------------------------------------------------------|
-8-8-8-8-8-8-8-8-6-6-6-6-6-6-6-6-7------------------------------------------|
-8-8-8-8-8-8-8-8-6-6-6-6-6-6-6-6-7------------------------------------------|
-8-8-8-8-8-8-8-8-6-6-6-6-6-6-6-6-7------------------------------------------|

INTERLUDE

----------------------------------------------------------------------------|
----------------------------------------------------------------------------|
----------------------------------------------------------------------------|
-0-3-0-0-0-3-0-1-0-0--------------------------------------------------------|
-0-3-0-0-0-3-0-1-0-0--------------------------------------------------------|
-0-3-0-0-0-3-0-1-0-0--------------------------------------------------------|

CHORUS 2

----------------------------------------------------------------------------|
----------------------------------------------------------------------------|
----------------------------------------------------------------------------|
-8-8-8-8-8-8-8-8-11-11-11-11-11-11-11-11-6-6-6-6-6-6-6-6-6-6-6-6-6-6-6-6----|
-8-8-8-8-8-8-8-8-11-11-11-11-11-11-11-11-6-6-6-6-6-6-6-6-6-6-6-6-6-6-6-6----|
-8-8-8-8-8-8-8-8-11-11-11-11-11-11-11-11-6-6-6-6-6-6-6-6-6-6-6-6-6-6-6-6----|


-----------------------------------------------------------------------------|
-----------------------------------------------------------------------------|
-----------------------------------------------------------------------------|
-8-8-8-8-8-8-8-8-11-11-11-11-11-11-11-11-13-13-13-13-13-13-13-13-------------|
-8-8-8-8-8-8-8-8-11-11-11-11-11-11-11-11-13-13-13-13-13-13-13-13-------------|
-8-8-8-8-8-8-8-8-11-11-11-11-11-11-11-11-13-13-13-13-13-13-13-13-1-2-3-4-5-6-|


----------------------------------------------------------------------------|
----------------------------------------------------------------------------|
----------------------------------------------------------------------------|
-8-8-8-8-8-8-8-8-11-11-11-11-11-11-11-11-6-6-6-6-6-6-6-6-6-6-6-6-6-6-6-6----|
-8-8-8-8-8-8-8-8-11-11-11-11-11-11-11-11-6-6-6-6-6-6-6-6-6-6-6-6-6-6-6-6----|
-8-8-8-8-8-8-8-8-11-11-11-11-11-11-11-11-6-6-6-6-6-6-6-6-6-6-6-6-6-6-6-6----|


----------------------------------------------------------------------------|
----------------------------------------------------------------------------|
----------------------------------------------------------------------------|
-8-8-8-8-8-8-8-8-6-6-6-6-6-6-6-6-8------------------------------------------|
-8-8-8-8-8-8-8-8-6-6-6-6-6-6-6-6-8------------------------------------------|
-8-8-8-8-8-8-8-8-6-6-6-6-6-6-6-6-8------------------------------------------|


Order:

INTRO		1x
BRIDGE		6x
END OF BRIDGE	1x
VERSE 1		5x
VERSE 2		1x
CHORUS 1	1x
VERSE 1		4x
BRIDGE		4x
VERSE 1		1x
VERSE 2		1x
CHORUS 1	1x
INTERLUDE	7x
CHORUS 1	1x
CHORUS 2	1x
You can play VERSE 1 as the Outro ...
            
Hard to play? Try these video lessons and learn fast. | Correct




comments powered by Disqus
↑ Back to top | Tablatures and chords are parodies/interpretations of the original songs. You may use it for private study, scholarship, research or language learning purposes only