>
 >
Bahama Mama 2

Bahama Mama 2 Guitar Tabs

4lyn - Bahama Mama 2 chords, tabs, tablatures, lyrics

Guitar lessons | Add/correct | Request | Top 50 tabs Artists:  A B C D E F G H I J K L M N O P Q R S T U V W X Y Z 0-9

Bahama Mama 2 Guitar Tabs – 4lyn

CD, Sheet music, Poster

Do you like Bahama Mama 2? Share with your friends now
Bass TabsTabsTabs v2Tabs v3
Tuning: Dropped D 1 1/2 steps down (B F# B E G# C#). This is the tuning that Rene uses.

Symbols used:

/: slide up
\: slide down


INTRO (with slide)

--------------------------------------------17\-----------17/20---20\----
-12/17---12/17---17\----17\12--12/17-------------17\12-------------------
                                                                              
BRIDGE  (with slide)	         END OF BRIDGE 

||---------------------------------||--------------
||---------------------------------||---------17---
||*--10-14-10-14/--12-16-12-16\---*||---12-16------
||*-------------------------------*||--------------
||---------------------------------||--------------
||---------------------------------||--------------

VERSE1                                                                             

-----12-15-12-----10-13---10\12---13-15-13---
--13-----------11---------11\13--------------
---------------------------------------------
---------------------------------------------
---------------------------------------------
---------------------------------------------

VERSE2                                                                              

-----12-15-12-----10-13---10\-9---9/10-\-9----9/10-\-9--9--9--9?9--9----
--13-----------11---------11\10?10/11-\10?-10/11-\10-10-10-10-10-10----
                                                                              
CHORUS1

-10-10-10-10-10-10-10-10-13-13-13-13-13-13-13-13-8-8-8-8-8-8-8-8-8-8-8-8-8-8-8-8-
-10-10-10-10-10-10-10-10-13-13-13-13-13-13-13-13-8-8-8-8-8-8-8-8-8-8-8-8-8-8-8-8-
-10-10-10-10-10-10-10-10-13-13-13-13-13-13-13-13-8-8-8-8-8-8-8-8-8-8-8-8-8-8-8-8-
                                                                              

-10-10-10-10-10-10-10-10-13-13-13-13-13-13-13-13-15-15-15-15-15-15-2-5-2-0-2-2--
-10-10-10-10-10-10-10-10-13-13-13-13-13-13-13-13-15-15-15-15-15-15-2-5-2-0-2-2--
-10-10-10-10-10-10-10-10-13-13-13-13-13-13-13-13-15-15-15-15-15-15-2-5-2-0-2-2--                                                                        

-10-10-10-10-10-10-10-10-13-13-13-13-13-13-13-13-8-8-8-8-8-8-8-8-8-8-8-8-8-8-8-8-
-10-10-10-10-10-10-10-10-13-13-13-13-13-13-13-13-8-8-8-8-8-8-8-8-8-8-8-8-8-8-8-8-
-10-10-10-10-10-10-10-10-13-13-13-13-13-13-13-13-8-8-8-8-8-8-8-8-8-8-8-8-8-8-8-8-
                                                                              

----------------------------------
----------------------------------
----------------------------------
-10-10-10-10-10-10-8-8-8-8-8-8-9?-
-10-10-10-10-10-10-8-8-8-8-8-8-9--
-10-10-10-10-10-10-8-8-8-8-8-8-9--
                                                                              
INTERLUDE

----------------------------------------------------------
----------------------------------------------------------
----------------------------------------------------------
----------------------------------------------------------
----------------------------------------------------------
-2-5-2-0-2-2---2-5-2-0-2-2---2-5-2-0-2-2---2-5-2-0-3-3-3--

CHORUS2                                                                              

-10-10-10-10-10-10-10-10-13-13-13-13-13-13-13-13-8-8-8-8-8-8-8-8-8-8-8-8-8-8-8-8-
-10-10-10-10-10-10-10-10-13-13-13-13-13-13-13-13-8-8-8-8-8-8-8-8-8-8-8-8-8-8-8-8-
-10-10-10-10-10-10-10-10-13-13-13-13-13-13-13-13-8-8-8-8-8-8-8-8-8-8-8-8-8-8-8-8-
                                                                              

-10-10-10-10-10-10-10-10-13-13-13-13-13-13-13-13-15-15-15-15-15-15-15-15-15-15--
-10-10-10-10-10-10-10-10-13-13-13-13-13-13-13-13-15-15-15-15-15-15-15-15-15-15--
-10-10-10-10-10-10-10-10-13-13-13-13-13-13-13-13-15-15-15-15-15-15-15-15-15-15--                                                                        

-10-10-10-10-10-10-10-10-13-13-13-13-13-13-13-13-8-8-8-8-8-8-8-8-8-8-8-8-8-8-8-8-
-10-10-10-10-10-10-10-10-13-13-13-13-13-13-13-13-8-8-8-8-8-8-8-8-8-8-8-8-8-8-8-8-
-10-10-10-10-10-10-10-10-13-13-13-13-13-13-13-13-8-8-8-8-8-8-8-8-8-8-8-8-8-8-8-8-
                                                                              

----------------------------------
----------------------------------
----------------------------------
-10-10-10-10-10-10-8-8-8-8-8-8-9?-
-10-10-10-10-10-10-8-8-8-8-8-8-9--
-10-10-10-10-10-10-8-8-8-8-8-8-9?

-10-10-10-10-10-10-10-10-13-13-13-13-13-13-13-13-8-8-8-8-8-8-8-8-8-8-8-8-8-8-8-8-
-10-10-10-10-10-10-10-10-13-13-13-13-13-13-13-13-8-8-8-8-8-8-8-8-8-8-8-8-8-8-8-8-
-10-10-10-10-10-10-10-10-13-13-13-13-13-13-13-13-8-8-8-8-8-8-8-8-8-8-8-8-8-8-8-8-
                                                                              

-10-10-10-10-10-10-10-10-13-13-13-13-13-13-13-13-15-15-15-15-15-3-4-5-6-7--
-10-10-10-10-10-10-10-10-13-13-13-13-13-13-13-13-15-15-15-15-15-3-4-5-6-7--
-10-10-10-10-10-10-10-10-13-13-13-13-13-13-13-13-15-15-15-15-15-3-4-5-6-7--                                                                        

-10-10-10-10-10-10-10-10-13-13-13-13-13-13-13-13-8-8-8-8-8-8-8-8-8-8-8-8-8-8-8-8-
-10-10-10-10-10-10-10-10-13-13-13-13-13-13-13-13-8-8-8-8-8-8-8-8-8-8-8-8-8-8-8-8-
-10-10-10-10-10-10-10-10-13-13-13-13-13-13-13-13-8-8-8-8-8-8-8-8-8-8-8-8-8-8-8-8-
                                                                              

-----------------------------------
-----------------------------------
-----------------------------------
-10-10-10-10-10-10-8-8-8-8-8-8-10?-
-10-10-10-10-10-10-8-8-8-8-8-8-10--
-10-10-10-10-10-10-8-8-8-8-8-8-10--

Outro

-----12-15-12-----10-13---10\12--
--13-----------11---------11\13--
---------------------------------
---------------------------------
---------------------------------
---------------------------------





Comments


Popular 4lyn tabs & chords
Pearls & Beauty Bass Tabs
Bahama Mama 1 Tabs
Discohead Tabs
Feel Me Tabs
Kisses Of A Strobelight Tabs
Neon Tabs
Nostalgia Intro Tabs
Nostalgia Intro 1 Tabs
Pearls And Beauty Tabs
Whooo Tabs


Song lyrics



↑ Back to top | Tablatures and chords are parodies/interpretations of the original songs. You may use it for private study, scholarship, research or language learning purposes only
© 2014 AZChords.com Contact us | Privacy policy | DMCA | Add/correct tabs | Request tabs | Top 50 tabs