>
 >
Killing Time

Killing Time Guitar Tabs

4ft Fingers - Killing Time chords, tabs, tablatures, lyrics

Guitar lessons | Add/correct | Request | Top 50 tabs Artists:  A B C D E F G H I J K L M N O P Q R S T U V W X Y Z 0-9

Killing Time Guitar Tabs – 4ft Fingers

CD, Sheet music, Poster

Do you like Killing Time? Share with your friends now
Bass TabsChordsTabsTabs v2Ukulele
 Matt.

INTRO: (clean, ska)
e|--3-3---3---3---3---3---3---3---3-3-3---3---3---3-3-3---3---3---3----------|
B|--3-3---3---3---3---3---3---3---3-3-3---3---3---3-3-3---3---3---3----------|
G|--0-0---0---0---0---0---0---0---0-0-0---0---0---0-2-2---2---2---0----------|
D|--0-0---0---0---0---0---0---0---0-2-2---2---2---0-0-0---0---0---0----------|
A|--2-2---2---2---2---2---2---2---0-3-3---3---3---0-0-0---0---0---0----------|
E|--3-3---3---3---3---3---3---3---x-x-x---x---x---x-x-x---x---x---x----------|


VERSE: same as intro


CHORUS: (distorted)
e|---------------------------------------------------------------------------|
B|---------------------------------------------------------------------------|
G|------------4---7--7-7--7-7-7-7--9--9-9-9----------------------------------|
D|--5--5-5-5--4---7--7-7--7-7-7-7--9--9-9-9--9--10-1010-10101010-------------|
A|--5--5-5-5--2---5--5-5--5-5-5-5--7--7-7-7--9--10-1010-10101010-------------|
E|--3--3-3-3---------------------------------7--8--8-8--8-8-8-8--------------|


OTHER BIT[1]: (distorted, ska)
e|---------------------------------------------------------------------------|
B|---------------------------------------------------------------------------|
G|--------------------------------5-5-5---5---5---7-7-7---7---7--------------|
D|--5-5---5---5---5---5---5---5---5-5-5---5---5---7-7-7---7---7--------------|
A|--5-5---5---5---5---5---5---5---3-3-3---3---3---5-5-5---5---5--------------|
E|--3-3---3---3---3---3---3---3----------------------------------------------|


OTHER BIT[2]: (clean, ska)
e|--x-x-3-3--x-x-3-3--x-x-3-3--x-x-3-3--x-x-3-3--x-x-3-3--x-x-5-5--x-x-5-5---|
B|--x-x-3-3--x-x-3-3--x-x-3-3--x-x-3-3--x-x-3-3--x-x-3-3--x-x-7-7--x-x-7-7---|
G|--x-x-4-4--x-x-4-4--x-x-4-4--x-x-4-4--x-x-5-5--x-x-5-5--x-x-7-7--x-x-7-7---|
D|--x-x-5-5--x-x-5-5--x-x-5-5--x-x-5-5--x-x-5-5--x-x-5-5--x-x-7-7--x-x-7-7---|
A|--x-x-5-5--x-x-5-5--x-x-5-5--x-x-5-5--x-x-3-3--x-x-3-3--x-x-5-5--x-x-5-5---|
E|--x-x-3-3--x-x-3-3--x-x-3-3--x-x-3-3--x-x-x-x--x-x-x-x--x-x-x-x--x-x-x-x---|


ENDING: (distorted)
e|---------------------------------------------------------------------------|
B|---------------------------------------------------------------------------|
G|---------------------------------------------------------------------------|
D|--5-------------5-5--5--5--5-5---5\----------------------------------------|
A|--5-------------5-5--5--5--5-5---5\----------------------------------------|
E|--3-------------3-3--3--3--3-3---3\----------------------------------------|


ORDER:
intro 		X8
chorus 		X4
verse 		X6
chorus 		X4
verse 		X2
other bit[1] 	X4
chorus 		X4
GAP (bass solo)	
other bit[2]	X4
chorus		X8
ending		X1





Comments


Popular 4ft Fingers tabs & chords
Brickwall Bass Tabs
Killing Time Bass Tabs
Hopeless Romantic Chords
Brickwall Tabs
Broken Bones Tabs
Last Man Standing Tabs
Last Man Standing 1 Tabs
Learn To Survive Tabs
Hopeless Romantic Ukulele
You Give A Little Love Ukulele


Song lyrics



↑ Back to top | Tablatures and chords are parodies/interpretations of the original songs. You may use it for private study, scholarship, research or language learning purposes only
© 2014 AZChords.com Contact us | Privacy policy | DMCA | Add/correct tabs | Request tabs | Top 50 tabs